Cifra Club

Aprenda

Apartamento 20

Jean Dapesi

Cifra: Principal (violão e guitarra)
Tom: Am
[Intro] Am

   Am
E|------------------------------------------|
B|-------0h1--------1-3-1-0-3---------------|
G|-----2-----2--0h2-------------------------|
D|-0h2---------0h2--------------------------|
A|------------------------------------------|
E|------------------------------------------|

E|------------------------------------------|
B|-------0h1--------3-1-0-3-0---------------|
G|-----2-----2--0h2-------------------------|
D|-0h2---------0h2--------------------------|
A|------------------------------------------|
E|------------------------------------------|

( Am  F  G  C )

 Am           F          G         C
Apartamento vinte a três passos do chão
Am            F            G        C
Faz agora um 'print' dessa cena então
   Am           F           G      C
Cordas vocais alteradas solfejam emoção
 Am              F           G         C
Os pés erram a esquina e a razão a solução

Am             F
Um dia faz diferença sim
    G          C
Em toda uma vida
Am                 F
E não se pode apagar enfim
       G                   C
O arrependimento que se lida
Am                          F
Pois como eu sempre volto a esses acordes
     G              C
E o céu a noite tinge
Am                  F
As lembranças podem se manchar
                G                       F/C  G/D  Am7  C
Mas sempre estarão no apartamento vinte

Am
"Volta agora!"

"Não demora"
G
"Eu te conheço"
        Am                F
"Eu sei tuas palavras até quando não fala"
G                   C
"Por horas te admirei"

Am             F
Um dia faz diferença sim
    G          C
Em toda uma vida
Am                 F
E não se pode apagar enfim
       G                   C
O arrependimento que se lida
Am                          F
Pois como eu sempre volto a esses acordes
     G              C
E o céu a noite tinge
Am                  F
As lembranças podem se manchar
                G                       F/C  G/D  Am7  C
Mas sempre estarão no apartamento vinte

F/C
Naquela rua
G/D
Naquele bairro
Am7        C
Aquela casa
F/C
A rota é sua
G/D             Am7          C
Um canto frágil do olho vaza

Am             F
Um dia faz diferença sim
    G          C
Em toda uma vida
Am                 F
E não se pode apagar enfim
       G                   C
O arrependimento que se lida
Am                          F
Pois como eu sempre volto a esses acordes
     G              C
E o céu a noite tinge
Am                  F
As lembranças podem se manchar
                G                       F/C  G/D  Am7  C
Mas sempre estarão no apartamento vinte

   Am
E|------------------------------------------|
B|-------0h1--------1-3-1-0-3---------------|
G|-----2-----2--0h2-------------------------|
D|-0h2---------0h2--------------------------|
A|------------------------------------------|
E|------------------------------------------|

E|------------------------------------------|
B|-------0h1--------3-1-0-3-0---------------|
G|-----2-----2--0h2-------------------------|
D|-0h2---------0h2--------------------------|
A|------------------------------------------|
E|------------------------------------------|
Composição de Anderson Pereira da Silva Jenuino
Colaboração e revisão:
  • Anderson Gaficemor
2 exibições
    • ½ Tom
    • Am
    • Bbm
    • Bm
    • Cm
    • C#m
    • Dm
    • Ebm
    • Em
    • Fm
    • F#m
    • Gm
    • G#m
  • Adicionar à lista

    0 comentários

    Mostrar mais comentários

    Conseguiu tocar?

    0 Tocaram 0 Ainda não

    Grave um vídeo tocando Apartamento 20 e mande pra gente!

    00:00 / 00:00
    outros vídeos desta música
    repetir qualidade Automático
    Outros vídeos desta música
    00:00 / 00:00
    Automático

    Cifra Club Pro

    Aproveite o Cifra Club com benefícios exclusivos e sem anúncios
    7 dias grátis
    Cifra Club Pro
    Aproveite o Cifra Club com benefícios exclusivos e sem anúncios
    7 dias grátis
    OK