Enviar cifraEntrar

51st Anniversary

Jimi Hendrix

Cifra: Principal
exibições 4.435
Tom: B
 Intro
  Q=126
 4/4
  Gtr I

|-------------|-------------|----------------
--|
----------------
----|
|-7--7--7--7--|-7--7--7--7--|
----------------
--|
----------------
----|
|-x--x--x--x--|-x--x--x--x--|
----------------
--|-7
----------------
--|
|-9--9--9--9--|-9--9--9--9--|-----7--(7)-7---7-|-7h9-7--------------|
|-x--x--x--x--|-x--x--x--x--|-7h9--------7-9---|-------9-7-(7)--9\--|
|-7--7--7--7--|-7--7--7--7--|
----------------
--|
----------------
----|


|----------|----------------
---------------|-------5-(5)-------|
|-2--------|-2-2-2-2-2-2-2-2-2-------------|-------5-(5)-----5-|
|-3--------|-3-3-3-3-3-3-3-3-3-2-2-4-2-----|-----x-6-(6)---x-4-|
|-4--------|-4-4-4-4-4-4-4-4-4---------0-0-|-----x-7-(7)---x-x-|
|-x--------|-x
----------------
-------------|-9-9-x-x-(x)---x-x-|
|-2--------|-2
----------------
-------------|-7-7---5-(5)-5---4-|


|----------------
-----------|-------5-(5)-------|
----------------
---------|
|-(5)---5---------2---------|-----7-5-(5)-----5-|-(5)---5-------2---------|
|-(4)---4---------2-4-2-----|-----x-6-(6)---x-4-|-(4)---4-------2-4-2-----|
|-(x)-0-0-0-0-2h4-------4-0-|---9-9-7-(7)---x-x-|-(x)-----0-2-4-------4p0-|
|-(x)---x
----------------
---|-9-9-9-x-(x)---x-x-|-(x)
----------------
-----|
|-(4)---4
----------------
---|-7-7-7-5-(5)-5---4-|-(4)-4
----------------
---|

 Verse 1

|-------5-(5)-------|----------------
-------|-------5-(5)-------|
|-------5-(5)-----5-|-(5)---5---------------|-------5-(5)-----5-|
|-----x-6-(6)---x-4-|-(4)---4-----7---------|-----x-6-(6)---x-4-|
|-----x-7-(7)---x-x-|-(x)---------7-9-7-----|-----x-7-(7)---x-x-|
|-9-9-x-x-(x)---x-x-|-(x)-----7h9-------9-0-|-9-9-x-x-(x)---x-x-|
|-7-7---5-(5)-5---4-|-(4)-4
----------------
-|-7-7---5-(5)-5---4-|


|----------------
----------|
----------------
-------|
----------------
---------|
|-(5)---5
----------------
--|
----------------
-------|---------------7---------|
|-(4)---4-------2h4--x-x-x-|
----------------
-------|-----9-7-------7---------|
|-(x)-----2-2h4------x-x-x-|
----------------
-------|-----9-7---7---7-9p7-----|
|-(x)
----------------
x-x-x-|-------7-----------5---|---------9-7h9-------9-x-|
|-(4)-4
----------------
----|-5-7s9---3-(3)-5s7---0-|-(0)
----------------
-----|


                                               Verse 2

|-------5-(5)-------|----------------
---------|-------5-(5)-------|
|-------5-(5)-----5-|-(5)---5
----------------
-|-------5-(5)-----5-|
|-------6-(6)---x-4-|-(4)---4-------2-4-2-----|-----x-6-(6)---x-4-|
|-------7-(7)---x-x-|-(x)-----2-2-4-------4p0-|-----x-7-(7)---x-x-|
|-----9-x-(x)---x-x-|-(x)
----------------
-----|-9-9-x-x-(x)---x-x-|
|-7-7-7-5-(5)-5---4-|-(4)-4
----------------
---|-7-7---5-(5)-5---4-|


|----------------
---------|-------5-(5)-------|
----------------
-----------|
|-(5)---5-------2---------|-------5-(5)-----5-|-(5)---5
----------------
---|
|-(4)---4-1-----2-4-2-----|-----x-6-(6)---x-4-|-(4)---4---------2-4-2-----|
|-(x)-------2-4---4-2-0-0-|-----x-7-(7)---x-x-|-(x)-----0-0-2h4-------4-0-|
|-(x)
----------------
-----|-9-9-x-x-(x)---x-x-|-(x)
----------------
-------|
|-(4)-4
----------------
---|-7-7---5-(5)-5---4-|-(4)-4
----------------
-----|


|----------------
-------|
----------------
---|
|
----------------
-------|
----------------
---|
|
----------------
-------|---------------2---|
|
----------------
-------|---2-4---2s4-0-2-0-|
|-------7-----------5---|-------0-----------|
|-5-7s9---3-(3)-5s7---0-|-0
----------------
-|


|-------5-(5)-------|----------------
--------|
|-------5-(5)-----5-|-(5)---------2----------|
|-------6-(6)---x-4-|-(4)-4-------2-4-2------|
|-------7-(7)---x-x-|-(x)---0-2-4-------4-0--|
|-9-9-9-x-(x)---x-x-|-(x)
----------------
----|
|-7-7-7-5-(5)-5---4-|-(4)-4
----------------
--|

 Verse 3

|-------5-(5)-------|----------------
-----------|-------5-(5)-------|
|-------5-(5)-----5-|-(5)---5
----------------
---|-------5-(5)-----5-|
|-----x-6-(6)---x-4-|-(4)---4---------2-4-2-----|-------6-(6)---x-4-|
|-----x-7-(7)---x-x-|-(x)-----0-0-2h4-------4-0-|-------7-(7)---x-x-|
|-9-9-x-x-(x)---x-x-|-(x)
----------------
-------|-9-9-9-x-(x)---x-x-|
|-7-7---5-(5)-5---4-|-(4)-4
----------------
-----|-7-7-7-5-(5)-5---4-|

                                                  ~~~

|----------------
-----------|
----------------
-------|
|-(5)---5
----------------
---|
----------------
-------|
|-(4)---4---------2-4-2-----|
----------------
-------|
|-(x)-----0-0-2h4-------4-0-|
----------------
-------|
|-(x)
----------------
-------|-------7-----------5-7-|
|-(4)-4
----------------
-----|-5-7s9---3-(3)-5s7-----|

 ~~~~~

|----------------
-------------|
|
----------------
--7-(7)------|
|----------7-7-----7-(7)------|
|----------7-7-9-7-------7h9--|
|-(7)--7s9
----------------
----|
|
----------------
-------------|

                                 Bridge

|--------------3--|-(3)---------|-------------|-------------|
|--------------3--|-(3)------2--|-------------|-------------|
|-----x-7-(7)--4--|-(4)------3--|-4-----------|-------------|
|-----x-x-(x)--5--|-(5)------4--|-4-----------|-------------|
|-9-9-x-5-(5)--x--|-(x)------x--|-2--2--2--2--|-2--2--2--2--|
|-7-7----------3--|-(3)------2--|-------------|-------------|


|----------------
--|
----------------
---|------------|-----|
|
----------------
--|
----------------
---|------------|-----|
|-----7--(7)-----7-|-7h9---------------|------------|-----|
|-----7--(7)-----7-|-7h9-7-------------|------------|-----|
|-7h9--------7-9---|-------9-7-(7)--9--|-(9)--------|-----|
|
----------------
--|
----------------
---|------------|-----|


|-----0-(0)----|-(0)-----------|----------------
-----|
|-----0-(0)----|-(0)------x-x--|-------7-(7)-7-------|
|-----1-(1)----|-(1)------x-x--|---7-9-7-(7)-7-7-----|
|-9---2-(2)----|-(2)------x-x--|-9-7-9---------9p7---|
|-x---2-(2)----|-(2)-----------|-9
----------------
-9-|
|-7---0-(0)----|-(0)-----------|
----------------
-----|


|----------------
----------|-------5-(5)-------|
----------------
------------|
|---7
----------------
------|-------5-(5)-----5-|-(5)---5
----------------
----|
|-7-7
----------------
------|-----x-6-(6)---x-4-|-(4)---4---------2-4-2------|
|-7-7-9p7------7-7-9-7-----|-----x-7-(7)---x-x-|-(x)-----0-0-2h4-------4-0--|
|--------------7-7---------|-9-9-x-x-(x)---x-x-|-(x)
----------------
--------|
|---------10-7---------7-7-|-7-7---5-(5)-5---4-|-(4)-4
----------------
------|


|-------5-(5)-------|----------------
---------|
|-------5-(5)-----5-|-(5)-------7-----------7-|
|-----x-6-(6)---x-4-|-(4)---x-x-7---7-------7-|
|-----x-7-(7)---x-x-|-(x)---x-x-7---7-9-7-----|
|-9-9-x-x-(x)---x-x-|-(x)---------9-------9---|
|-7-7---5-(5)-5---5-|-(5)-4
----------------
---|

 Verse 4

|-------5-(5)-------|---------2-----2-2-----2-2-----2-----x--|
|-------5-(5)-----5-|-(5)---5-3b3.5---3b3.5---3b3.5-3b3.5-x--|
|-----x-6-(6)---x-4-|-(4)---4----------------

----------------
|
|-----x-7-(7)---x-x-|-(x)
----------------

----------------
----|
|-9-9-x-x-(x)---x-x-|-(x)
----------------

----------------
----|
|-7-7---5-(5)-5---4-|-(4)-4
----------------

----------------
--|


|-------5-(5)-------|---------2-----2-2-----2-2-----2-----x-|
|-------5-(5)-----5-|-(5)---5-3b3.5---3b3.5---3b3.5-3b3.5-x-|
|-----x-6-(6)---x-4-|-(4)---4----------------
---------------|
|-----x-7-(7)---x-x-|-(x)
----------------

----------------
---|
|-9-9-x-x-(x)---x-x-|-(x)
----------------

----------------
---|
|-7-7---5-(5)-5---4-|-(4)-4
----------------

----------------
-|


|----------------
-------|
|
----------------
-------|
|
----------------
-------|
|
----------------
-----9-|
|-------7-----------5-7-|
|-5-7s9---3-(3)-5s7---0-|


|----------------
--------------|-------5-(5)-------|
|-----------7-7-7-7------------|-------5-(5)-----5-|
|-------9-7-7-7-7-7------------|-----x-6-(6)---x-4-|
|-(9)-9-9-7-7-7-7-7-9----------|-----x-7-(7)---x-x-|
|-(7)-7
----------------
--------|-9-9-x-x-(x)---x-x-|
|-(0)
----------------
-10-10-10-|-7-7---5-(5)-5---4-|

                                   Verse 5

|---------2-----2-2-----2-2-------|-------5-(5)--------|
|-(5)---5-3b3.5---3b3.5---3b3.5---|-------5-(5)-----5--|
|-(4)---4----------------
-------4-|-----x-6-(6)---x-4--|
|-(x)
----------------
-------------|-----x-7-(7)---x-x--|
|-(x)
----------------
-------------|-9-9-x-x-(x)---x-x--|
|-(4)-4
----------------
-----------|-7-7---5-(5)-5---4--|


|---------2-----2-2-----2-2-----2-----x-|
|-(5)---5-3b3.5---3b3.5---3b3.5-3b3.5-x-|
|-(4)---4----------------
---------------|
|-(x)
----------------

----------------
---|
|-(x)
----------------

----------------
---|
|-(4)-4
----------------

----------------
-|


|-------5-(5)-------|---------2-----2-2-----2-2-----2-----x-|
|-------5-(5)-----4-|-(4)-5-5-3b3.5---3b3.5---3b3.5-3b3.5-x-|
|-----x-6-(6)---x-5-|-(5)-4-4----------------
---------------|
|-----x-7-(7)---x-x-|-(x)-x
----------------

----------------
-|
|-9-9-x-x-(x)---x-x-|-(x)-x
----------------

----------------
-|
|-7-7---5-(5)-5---4-|-(4)-4
----------------

----------------
-|


|----------------
-------|
|
----------------
-------|
|
----------------
-------|
|
----------------
-------|
|-------7-----------5-7-|
|-5-7s9---3-(3)-5s7---0-|


|----------------

----------------
---|-------5-(5)-------|
|---------7-----7-7-----7-7---------|-------5-(5)-----5-|
|---------7b7.5---7b7.5---7b7.5-----|-----x-6-(6)---x-4-|
|-----9-9
----------------
-----------|-----x-7-(7)---x-x-|
|-(7)-7-7
----------------
-----------|-9-9-x-x-(x)---x-x-|
|-(0)
----------------
-----------7-7-|-7-7---5-(5)-5---4-|

                                         Verse 6

|---------2-----2-2-----2-2-----2-----x-|-------5-(5)-------|
|-(5)---5-3b3.5---3b3.5---3b3.5-3b3.5-x-|-------5-(5)-----5-|
|-(4)---4----------------
---------------|-----x-6-(6)---x-4-|
|-(x)
----------------

----------------
---|-----x-7-(7)---x-x-|
|-(x)
----------------

----------------
---|-9-9-x-x-(x)---x-x-|
|-(4)-4
----------------

----------------
-|-7-7---5-(5)-5---4-|


|---------2-----2-2-----2-2-----2-----x-|-------5-(5)-------|
|-(5)---5-3b3.5---3b3.5---3b3.5-3b3.5-x-|-------5-(5)-----5-|
|-(4)---4----------------
---------------|-----x-6-(6)---x-4-|
|-(x)
----------------

----------------
---|-----x-7-(7)---x-x-|
|-(x)
----------------

----------------
---|-9-9-x-x-(x)---x-x-|
|-(4)-4
----------------

----------------
-|-7-7---5-(5)-5---4-|


|---------2-----2-2-----2-2-----2-----x-|
|-(5)-5-5-3b3.5---3b3.5---3b3.5-3b3.5-x-|
|-(4)-4-4----------------
---------------|
|-(x)-x
----------------

----------------
-|
|-(x)-x
----------------

----------------
-|
|-(4)-4
----------------

----------------
-|


|----------------
-------|
----------------

----------------
---|
|
----------------
-------|---------7-----7-7-----7-7---------|
|
----------------
-------|---------7b7.5---7b7.5---7b7.5-----|
|
----------------
-------|-----9-9
----------------
-----------|
|-------7-----------5-7-|-(7)-7-7
----------------
-----------|
|-5-7s9---4-(4)-5s7---0-|-(0)
----------------
-----------7-7-|

                                   Bridge

|----------------
3--|-(3)------2--|-------------|--------------|
|---7-7-7-7-(7)--3--|-(3)------2--|-------------|--------------|
|---8-8-8-7-(7)--4--|-(4)------3--|-4-----------|--------------|
|---9-9-9-7-(7)--5--|-(5)------4--|-4--x--x-----|--------------|
|---------5-(5)--x--|-(x)------x--|----x--x--2--|-2--2--2--2---|
|-7--------------3--|-(3)------2--|-------------|--------------|


|----------------
--|
----------------
---|------------|-----|
|
----------------
--|
----------------
---|------------|-----|
|
----------------
--|-7---7-------------|------------|-----|
|-----7--(7)-----7-|-7h9-7-------------|------------|-----|
|-7h9--------7-9---|-------9-7-(7)--9--|-(9)--------|-----|
|
----------------
--|
----------------
---|------------|-----|


|----------------
--|
----------------
---|------------|--------|
|
----------------
--|
----------------
---|------------|--------|
|-----7--(7)-----7-|-7h9---------------|------------|--------|
|-7---7--(7)-7---7-|-7h9-7-9-7-(7)--9--|-(9)--------|-(9)----|
|-7h9----------9---|-------9-7-(7)--9--|-(9)--------|-(9)----|
|
----------------
--|
----------------
---|------------|--------|


|----------------
--|
----------------
---|------------|--------|
|
----------------
--|
----------------
---|------------|--------|
|-----7--(7)-----7-|-7h9-7-------------|------------|--------|
|-7h9-7--(7)-7-9-7-|-7h9-7-9-7-(7)--9--|-(9)--------|-(9)----|
|-7h9--------7-9---|-------9-7-(7)--9--|-(9)--------|-(9)----|
|
----------------
--|
----------------
---|------------|--------|

                             Outro

|-7s==0-(0)----|-(0)--------|----------------

----------------
-|
|-7s==0-(0)----|-(0)--------|
----------------

----------------
-|
|-x---1-(1)----|-(1)--------|-11-11-11-11-11-9-9-9-9-9-7-7-7--|
|-9s==2-(2)----|-(2)--------|--x--x--x--x--x-x-x-x-x-x-x-x-x--|
|-x---2-(2)----|-(2)--------|--9--9--9--9--9-7-7-7-7-7-5-5-5--|
|-7s==0-(0)----|-(0)--------|
----------------

----------------
-|


|----------------

----------------
-----|-------5-(5)-------|
|
----------------

----------------
-----|-------5-(5)-----5-|
|-9-9-9-x-11-11-11-11---------7s9-9-9-|-----x-6-(6)---x-4-|
|-x-x-x-x--x--x--x--x-7-7-7-7-x---x-x-|-----x-7-(7)---x-x-|
|-7-7-7-x--9--9--9--9-x-x-x-x-5s7-7-7-|-9-9-x-x-(x)---x-x-|
|
----------------
-----5-5-5-5---------|-7-7---5-(5)-5---4-|


|----------------

----------------
--|
|-(5)-5
----------------
------------|
|-(4)-4-x-9s11-11-11-9-9-9-9-7-----|
|-(x)-x-x-x----------x-x-x-x-x-9-9-|
|-(x)-x-x-7s=9--9--9-7-7-7-7-5-x-x-|
|-(4)-4
----------------
--------7-7-|


|---------5-(5)-------|----------------
--------------|
|---7-7-7-5-(5)-5---5-|-(5)
----------------
----------|
|---x-x-x-6-(6)-6-x-4-|-(4)-x-9s11-11-11-9-9-7-7-7---|
|-9-9-9-9-7-(7)-7-x-x-|-(x)-x-x-----x--x-x-x-------9-|
|-x-x-x-x-x-(x)---x-x-|-(x)-x-7s=9--9--9-7-7-5-5-5-x-|
|-7-7-7-7-5-(5)-----4-|-(4)
----------------
--------7-|


|-------5-(5)-5-----|----------------
---------------|---------5-(5)-5-----|
|-----7-5-(5)-5---5-|-(5)
----------------
-----------|---7-7---5-(5)-5---5-|
|-----x-6-(6)-6-x-4-|-(4)-7-11s13-13---11-11-11-9-7-|---x-x---6-(6)-6-x-4-|
|-9-9-9-7-(7)-7-x-x-|-(x)-x--x--x--x-0--x--x--x-x-x-|-9-9-9-9-7-(7)-7-x-x-|
|-x-x-x-x-(x)-x-x-x-|-(x)-5--9s11-11----9--9--9-7-5-|-x-----x-x-(x)-x-x-x-|
|-7-7-7-5-(5)-5---4-|-(4)
----------------
-----------|-7-----7-5-(5)-5---4-|


|----------------
-------------|-------5-(5)-------|
----------------
-------|
|-(5)---5-5---------2---------|-------5-(5)-----5-|-(5)---5-5-5-7-5-5-5---|
|-(4)-4-4-4---4-----2-4p2-----|-------6-(6)---x-4-|-(4)-4-4-4-4-4-4-4-4---|
|-(x)---x-x-0-4-2h4-------4p0-|-9-9---7-(7)---x-x-|-(x)-x---x-x-----x-x---|
|-(x)---x-x
----------------
---|-9-9-0-x-(x)---x-x-|-(x)-x---x-x-----x-0-0-|
|-(4)---4-4
----------------
---|-7-7---5-(5)-5---4-|-(4)-4---4-4-----4-----|


|----------------
-3--|-(3)---------|
----------------
-3--|-(3)--5p3-5p3-5p3-|
|-4-4-4-4-7-(7)---3--|-(3)------2--|-4-4-4-4-7-(7)---3--|-(3)--3---3---3---|
|-4-4-4-4-7-(7)---4--|-(4)------3--|-4-4-4-4-7-(7)---4--|-(4)--4---4---4---|
|-4-4-4-4-7-(7)---5--|-(5)------4--|-4-4-4-4-7-(7)---5--|-(5)--------------|
|-2-2-2-2-5-(5)---x--|-(x)------x--|-2-2-2-2-5-(5)---x--|-(x)--------------|
|---------------0-3--|-(3)------2--|---------------0-3--|-(3)--------------|


|-5p3-5p3-5p3-5p3-|-5p3-5p3-5p3-5p3-|-5p3-5p3-5p3-5p3-|-5p3-5p3-5p3-5p3-|
|-3---3---3---3---|-3---3---3---3---|-3---3---3---3---|-3---3---3---3---|
|-4---4---4---4---|-4---4---4---4---|-4---4---4---4---|-4---4---4---4---|
|----------------
-|
----------------
-|
----------------
-|
----------------
-|
|
----------------
-|
----------------
-|
----------------
-|
----------------
-|
|
----------------
-|
----------------
-|
----------------
-|
----------------
-|


|-5p3-5p3-5p3-5p3-|-5p3-5p3-5p3-5p3-|-5p3-5p3-5p3-5p3-|-5p3-5p3-5p3-5p3-*|
|-3---3---3---3---|-3---3---3---3---|-3---3---3---3---|-3---3---3---3---*|
|-4---4---4---4---|-4---4---4---4---|-4---4---4---4---|-4---4---4---4---*|
|----------------
-|
----------------
-|
----------------
-|
----------------
-*|
|
----------------
-|
----------------
-|
----------------
-|
----------------
-*|
|
----------------
-|
----------------
-|
----------------
-|
----------------
-*|

Tablature Legend

----------------

 h   - hammer-on
 p   - pull-off
 b   - bend
 pb  - pre-bend
 r   - bend release (if no number after the r, then release immediately)
 /\  - slide into or out of (from/to "nowhere")
 s   - legato slide
 S   - shift slide
  - natural harmonic
[n]  - artificial harmonic
n(n) - tapped harmonic
 ~   - vibrato
 tr  - trill
 T   - tap
 TP  - trem. picking
 PM  - palm muting
\n/  - tremolo bar dip; n = amount to dip
 \n  - tremolo bar down
 n/  - tremolo bar up
/n\  - tremolo bar inverted dip
 =   - hold bend; also acts as connecting device for hammers/pulls
   - volume swell (louder/softer)
 x   - on rhythm slash represents muted slash
 o   - on rhythm slash represents single note slash
  • 1
  • 2
  • 3
  • 4
  • 5
  • 6
  • 7
  • 8
  • 9
  • 10
  • 11
  • 12
    Acordes para:
      Composição: Jimi HendrixColaboração e revisão:
      • Élison Duarte

      0 comentários

        mostrar mais comentários

        Conseguiu tocar?

        0tocaram0ainda não

        Grave um vídeo tocando 51st Anniversary e mande pra gente!

        00:00 / 00:00
        outros vídeos desta música
        repetirqualidadeautomática
        • automática
        Outro vídeos desta música
          00:00 / 00:00
          automática
          • automática
          Acordes para:violão e guitarra
          dificuldadeexibiçõescontribuições
          2 versões de Tab de baixoexibiçõescontribuições
          2 versões de Guitar Proformatodownloadscontribuição
          fecharplay/pause subir/descer velocidade
            Acordes para:violão e guitarra
            acordes
            fechar
            OK