Cifra Club

Are You Experienced

Jimi Hendrix

Tab de baixo: Principal
exibições 197
G|----------------------------------------------------------------|
D|------------------------------------------------------2---------|
A|----------------------------------------------------------------|
E|----------------------------------------------------------------|

G|----------------------------------------------------------------|
D|----------------0c------2-------------------------------2-------|
A|----------------------------------------0-----------------------|
E|0-------0---------------------------0-------0---3---4-----------|

G|--------------------------------------------------------0-------|
D|0---2-----------0-------2---------------2-----------------------|
A|------------2-----------------------2-------2-------------------|
E|------------------------------------------------3---------------|

G|----------------------------------------------------------------|
D|----------------0c------2-------------------------------2/3-----|
A|----------------------------------------0-----------------------|
E|0---0-------0-----------------------0-------0---3---4-----------|

G|----------------------------------------------------------------|
D|0---2-----------0-------2-------------------------------0-------|
A|------------------------------------0-------1-------2-----------|
E|----------------------------3-----------------------------------|

G|------------------------12--------------------------------------|
D|----------------9/12--------------------------------------------|
A|------------------------------------0-------1-------2-----------|
E|0---12----------------------3---------------------------3-------|

G|----------------------------------------------------------------|
D|0---2-----------0-------2---------------2-----------------------|
A|------------2-----------------------2-------2---0---------------|
E|----------------------------------------------------3---2-------|

G|----------------------------------------------------------------|
D|------------------------0-------------------------------2/3-----|
A|----------------------------------------0-----------------------|
E|0---0-------3-------0---------------0-------0---3---4-----------|

G|----------------------------------------------------------------|
D|0---2-----------2---------------------------------------0-------|
A|------------------------------------0-------1---2---------------|
E|------------------------3c--------------------------0-----------|

G|----------------------------------------------------------------|
D|----------------0-----------2---------------------------2-------|
A|------------------------2---------------0-----------------------|
E|0-------0---------------------------0-------0---3---4-----------|

G|----------------------------------------------------------------|
D|0---2-----------0-------2---------------2---------------0-------|
A|------------2-----------------------2-------2-------2-----------|
E|----------------------------------------------------------------|

G|----------------------------------------------------------------|
D|--------2-------0c------2-------------------------------2-------|
A|----------------------------------------0-----------------------|
E|0-----------------------------------0-------0---3---4-----------|

G|----------------------------------------------------------------|
D|0---2-----------0-------2---------------2-----------------------|
A|------------2-----------------------2-------2---0---------------|
E|--------------------------------------------------------3---0---|

G|----------------------------------------------------------------|
D|------------------------0-------------------------------2/3-----|
A|----------------------------------------0-----------------------|
E|----0-------3-------0---------------0-------0---3---4-----------|

G|----------------------------------------------------------------|
D|0---2-----------2---------------------------------------0-------|
A|------------------------------------0-------1---2---------------|
E|------------------------3c--------------------------0-----------|

G|----------------------------------------------------------------|
D|----------------0c------------------0-------------------2-------|
A|----------------------------------------------------------------|
E|0-----------0-----------0---0-----------0-------3---4-----------|

G|----------------------------------------------------------------|
D|----2-----------------------2-----------2-----------------------|
A|------------------------------------2-------2---0---------------|
E|0-----------0---3-------0-------------------------------3-2-----|

G|----------------------------------------------------------------|
D|------------------------0-------------------------------2/3-----|
A|----------------------------------------0-----------------------|
E|0---0-------3-------0---------------0-------0---3---4-----------|

G|----------------------------------------------------------------|
D|----2-----------------------2-----------2-----------------------|
A|------------------------------------2-------2---1---0-----------|
E|0-----------0---3-------0-------------------------------4/--3---|

G|----------------------------------------------------------------|
D|------------------------0-------------------------------2/3-----|
A|----------------------------------------0-----------------------|
E|0---0-------3-------0---------------0-------0---3---4-----------|

G|----------------------------------------------------------------|
D|0---2-----------2---------------------------------------0-------|
A|------------------------------------0-------1---2---------------|
E|------------------------3c--------------------------0-----------|

G|----------------5c------------------------------5---6-----------|
D|----------------------------------------------------------------|
A|3-----------3---------------3-----------3---------------3-------|
E|------------------------0-----------0---------------------------|

G|----7-----------5-----------7-----------------------------------|
D|------------------------7---------------------------------------|
A|5-----------5-----------------------------------5-------7-------|
E|------------------------------------5---8---5---------------0---|

G|----------------------------------------------------------------|
D|----------------------------0---------------------------2/3-----|
A|----------------------------------------0-----------------------|
E|------------0---3-------0-----------0-------0---3---4-----------|

G|------------------------9/--11----------------------------------|
D|----------------------------------------------------------------|
A|--------9-----------------------------------0-------2-----------|
E|10--12/---------12------------------3-------------------10------|

G|----------------------------------------------------------------|
D|----------------0c------------------------------------------0c--|
A|------------------------------------0-------1-------2-----------|
E|0-----------0-------0-------3-----------------------------------|

G|------------------------------------------------4c------7-6-----|
D|----------------------------------------7---5-------------------|
A|----7-----------------------7-----------------------------------|
E|--------3---------------5-----------7---------------------------|

G|----------------------------------------------------------------|
D|------------------------------------------------0---1---2/3-----|
A|----------------------------0-----------2-----------------------|
E|0---0-------3-------0---------------0-------0-------------------|

G|----------------4-----------------------------------------------|
D|----2/--5---------------5c--------------------------------------|
A|5-------------------------------------------1---2-------5-------|
E|------------------------------------5---------------0-----------|

G|----------------------------------------------------------------|
D|----2-------0---------------------------------------0-----------|
A|--------------------2-------1-------0---------------------------|
E|0-------------------------------------------3-----------0/1-----|

G|0---------------------------------------------------------------|
D|----2-----------------------------------------------0-----------|
A|----------------0-------------------0-------2---------------2---|
E|--------------------0c----------3-------------------------------|

G|----------------------------------------------------------------|
D|2-----------0c--------------------------------------------------|
A|----------------------------4---------------2-----------0-------|
E|----0---------------0---------------0-----------3---------------|

G|----------------------------0-------------------2---0-----------|
D|----2-----------------------------------0---2-------------------|
A|----------------0-------------------2---------------------------|
E|0-------3---------------0---------------------------------------|

G|------------------------12--------------------------------------|
D|----------------9/12--------------------------------------------|
A|------------------------------------0-------1-------2-----------|
E|0---12----------------------3-------------------------------10--|

G|----------------------------------------------------------------|
D|----------------0---------------------------------------0-------|
A|--------0---------------------------0-------1---2---------------|
E|0---3/------------------3c--------------------------0-----------|

G|3-1-----2-------0c----------------------------------------------|
D|------------------------------------0-------------------2-------|
A|----------------------------------------------------------------|
E|------------------------0---------------0-------3---4-----------|

G|------------------------------------7---9-----------------------|
D|--------------------7-------9---------------8---7/8-------------|
A|10--7-------10c-----------------------------------------10------|
E|----------------------------------------------------------------|

G|----------------------------------------------------------------|
D|2-----------------------0-------------------------------2/3-----|
A|----------------------------------------0-----------------------|
E|----0-------3-------0---------------0-------0---3---4-----------|

G|----------------------------------------------------------------|
D|0---2-----------2---------------------------------------0-------|
A|------------------------------------0-------1---2---------------|
E|------------------------3c--------------------------0-----------|
Composição: Jimi HendrixColaboração e revisão:
  • Jefferson Sousa

0 comentários

    mostrar mais comentários

    Conseguiu tocar?

    0tocaram0ainda não

    Grave um vídeo tocando Are You Experienced e mande pra gente!

    00:00 / 00:00
    outros vídeos desta música
    repetirqualidadeautomática
    Outro vídeos desta música
      00:00 / 00:00
      automática
      OK