Cifra Club

Pisces

Jinjer

Tab de baixo: Principal
[Primeira Parte]

        T  T         T  T
G|---------16-----------16----------------------|
D|------14-----------17-------------------------|
A|----------------------------------------------| (8x)
E|--5----------5/8----------8-------------------|
A|----------------------------------------------|

[Pré-Refrão]

      T  T         T  T      T  T  T      T  T
G|-------21-----------19------------------------|
D|----19-----------17-----------19-----------19-|
A|---------------------------17----17-----17----| (4x)
E|-10-----------12--------13-----------12-------|
A|-----------10---------------------------------|

[Interlúdio] 

G|----------------------------------------------|
D|----------------------------------------------|
A|----------------------------------------------|
E|--5--5/8---5--5/8---5--5/8---5--5/8-----2-----|
A|--------------------------------------3---3---|

[Refrão]

G|----------------------------------------------|
D|----------------------------------------------|
A|----------------------------------------------| 
E|--------5-7-----------------------------------|
A|--0---0-------0------0--7---------------------|

G|----------------------------------------------|
D|----------------------------------------------|
A|--7-5---------7-5-----------------------------|
E|------7-5---------7-5----------------2--------|
A|----------8-----------8--8--8--5---3---3------|

G|----------------------------------------------|
D|----------------------------------------------|
A|----------------------------------------------| 
E|--------5-7-----------------------------------|
A|--0---0-------0------0--7---------------------|

G|----------------------------------------------|
D|----------------------------------------------|
A|--7-5---------7-5-----------------------------|
E|------7-5---------7-5----------------2--------|
A|----------8-----------8--8--8--5---3---3------|

G|----------------------------------------------|
D|----------------------------------------------|
A|----------------------------------------------| 
E|--------5-7-----------------------------------|
A|--0---0-------0------0--7---------------------|

G|----------------------------------------------|
D|----------------------------------------------|
A|--7-5---------7-5-----------------------------|
E|------7-5---------7-5----------------2--------|
A|----------8-----------8--8--8--5---3---3------|

G|----------------------------------------------|
D|----------------------------------------------|
A|----------------------------------------------| 
E|--------5-7-----------------------------------|
A|--0---0-------0------0--7---------------------|

G|----------------------------------------------|
D|----------------------------------------------|
A|--7-5---------7-5-----------------------------|
E|------7-5---------7-5----------------2--------|
A|----------8-----------8--8--8--5---3---3------|

[Segunda Parte]

        T  T         T  T
G|---------16-----------16----------------------|
D|------14-----------17-------------------------|
A|----------------------------------------------| (12x)
E|--5----------5/8----------8-------------------|
A|----------------------------------------------|

[Pré-Refrão] 

      T  T         T  T      T  T  T      T  T
G|-------21-----------19------------------------|
D|----19-----------17-----------19-----------19-|
A|---------------------------17----17-----17----| (3x)
E|-10-----------12--------13-----------12-------|
A|-----------10---------------------------------|

      T  T         T  T      T  T  T      T
G|-------21-----------19------------------------|
D|----19-----------17-----------19--------------|
A|---------------------------17----17-----17----|
E|-10-----------12--------13-----------12----12\|
A|-----------10---------------------------------|

G|----------------------------------------------|
D|----------------------------------------------|
A|----------------------------------------------|
E|----2-----------------------------------------|
A|--3---3---------------------------------------|

[Refrão]

G|----------------------------------------------|
D|----------------------------------------------|
A|----------------------------------------------| 
E|--------5-7-----------------------------------|
A|--0---0-------0------0--7---------------------|

G|----------------------------------------------|
D|----------------------------------------------|
A|--7-5---------7-5-----------------------------|
E|------7-5---------7-5----------------2--------|
A|----------8-----------8--8--8--5---3---3------|

G|----------------------------------------------|
D|----------------------------------------------|
A|----------------------------------------------| 
E|--------5-7-----------------------------------|
A|--0---0-------0------0--7---------------------|

G|----------------------------------------------|
D|----------------------------------------------|
A|--7-5---------7-5-----------------------------|
E|------7-5---------7-5----------------2--------|
A|----------8-----------8--8--8--5---3---3------|

G|----------------------------------------------|
D|----------------------------------------------|
A|----------------------------------------------| 
E|--------5-7-----------------------------------|
A|--0---0-------0------0--7---------------------|

G|----------------------------------------------|
D|----------------------------------------------|
A|--7-5---------7-5-----------------------------|
E|------7-5---------7-5----------------2--------|
A|----------8-----------8--8--8--5---3---3------|

G|----------------------------------------------|
D|----------------------------------------------|
A|----------------------------------------------| 
E|--------5-7-----------------------------------|
A|--0---0-------0------0--7---------------------|

G|----------------------------------------------|
D|----------------------------------------------|
A|--7-5---------7-5-----------------------------|
E|------7-5---------7-5----------------2--------|
A|----------8-----------8--8--8--5---3---3------|

[Terceira Parte] 

G|----------------------------------------------|
D|----------------------------------------------|
A|----------------------------------------------|
E|----------------------------------------------|
A|--0-------------------------------------------|

G|----------------------------------------------|
D|----------------------------------------------|
A|--------------6-7-9/10--------------6-7-9/10--|
E|--5--5-5----8-----------5--5-5----8-----------|
A|----------6---------------------6-------------|

G|----------------------------------------------|
D|----------------------------------------------|
A|----------------------------------------------|
E|----------------------------------------------|
A|--8--8-10--10---------------------------------|

G|----------------------------------------------|
D|----------------------------------------------|
A|--------------6-7-9/10--------------6-7-9/10--|
E|--5--5-5----8-----------5--5-5----8-----------|
A|----------6---------------------6-------------|

G|----------------------------------------------|
D|----------------------------------------------|
A|----------------------------------------------|
E|--------------10-7----------------------------|
A|--8--8-10--10------10-------------------------|

G|----------------------------------------------|
D|----------------------------------------------|
A|--------------6-7-9/10--------------6-7-9/10--|
E|--5--5-5----8-----------5--5-5----8-----------|
A|----------6---------------------6-------------|

G|----------------------------------------------|
D|----------------------------------------------|
A|-------------------------------------6-7-9/10-|
E|--------------10-7-----------------8----------|
A|--8--8-10--10------10--12--------6------------|

[Quarta Parte]

G|----------------------------------------------|
D|----------------------------------------------|
A|----------------------------------------------|
E|--5-5-5-5------5-5-5-5------------------------|
A|----------0-0----------0-0--------------------|

G|----------------------------------------------|
D|----------------------------------------------|
A|-------------------6-7-9/10-------------------|
E|--5-5-5-5--------8----------------------------|
A|----------0-0--6------------------------------|

G|----------------------------------------------|
D|----------------------------------------------|
A|----------------------------------------------|
E|--5-5-5-5------5-5-5-5------------------------|
A|----------0-0----------0-0--------------------|

G|----------------------------------------------|
D|----------------------------------------------|
A|-------------------6-7-9/10-------------------|
E|--5-5-5-5--------8----------------------------|
A|----------0-0--6------------------------------|

G|----------------------------------------------|
D|----------------------------------------------|
A|----------------------------------------------|
E|----------------------------------------------|
A|--8-8-8-8-8-8--8-8-8-8-8-8--------------------|

G|----------------------------------------------|
D|----------------------------------------------|
A|----------------------------------------------|
E|----------------------------------------------|
A|--10-10-10-10-10-10--10-10-10-10-10-10--------|

G|----------------------------------------------|
D|----------------------------------------------|
A|----------------------------------------------|
E|--5-5-5-5------5-5-5-5------------------------|
A|----------0-0----------0-0--------------------|

G|----------------------------------------------|
D|----------------------------------------------|
A|-------------------6-7-9/10-------------------|
E|--5-5-5-5--------8----------------------------|
A|----------0-0--6------------------------------|

G|----------------------------------------------|
D|----------------------------------------------|
A|----------------------------------------------|
E|--5-5-5-5------5-5-5-5------------------------|
A|----------0-0----------0-0--------------------|

G|----------------------------------------------|
D|----------------------------------------------|
A|-------------------6-7-9/10-------------------|
E|--5-5-5-5--------8----------------------------|
A|----------0-0--6------------------------------|

G|----------------------------------------------|
D|----------------------------------------------|
A|----------------------------------------------|
E|----------------------------------------------|
A|--8-8-8-8-8-8--8-8-8-8-8-8--------------------|

G|----------------------------------------------|
D|----------------------------------------------|
A|----------------------------------------------|
E|----------------------------------------------|
A|--10-10-10-10-10-10--10-10-10-10-10-10--------|

G|----------------------------------------------|
D|----------------------------------------------|
A|----------------------------------------------|
E|--5-5-5-5------5-5-5-5------------------------|
A|----------0-0----------0-0--------------------|

G|----------------------------------------------|
D|----------------------------------------------|
A|-------------------6-7-9/10-------------------|
E|--5-5-5-5--------8----------------------------|
A|----------0-0--6------------------------------|

G|----------------------------------------------|
D|----------------------------------------------|
A|----------------------------------------------|
E|--5-5-5-5------5-5-5-5------------------------|
A|----------0-0----------0-0--------------------|

G|----------------------------------------------|
D|----------------------------------------------|
A|-------------------6-7-9/10-------------------|
E|--5-5-5-5--------8----------------------------|
A|----------0-0--6------------------------------|

G|----------------------------------------------|
D|----------------------------------------------|
A|----------------------------------------------|
E|----------------------------------------------|
A|--8-8-8-8-8-8--8-8-8-8-8-8--------------------|

G|----------------------------------------------|
D|----------------------------------------------|
A|----------------------------------------------|
E|----------------------------------------------|
A|--10-10-10-10-10-10--10-10-10-10-10-10--------|

[Final] 

G|----------------------------------------------|
D|----------------------------------------------|
A|----------------------------------------------| (x4)
E|--------5h8-------5h8-------5h8-------------8-|
A|--0-0h6-----0-0h6-----0-0h6-----12-10-0-9-6---|

G|----------------------------------------------|
D|----------------------------------------------|
A|----------------------------------------------|
E|--5-5-5-5----5-5-5-5-5------------------------|
A|----------------------------------------------|
00:00 / 00:00
Outros vídeos desta música
Repetir
Outros vídeos desta música
Compositor não encontrado.
Colaboração e revisão:
  • Samuel Chacon
1.153 exibições

0 comentários

Ver todos os comentários

Entre para oCifra Club PRO

Tenha acesso a benefícios exclusivos no App e no Site

  • Chega de anúncios

  • Prioridade de compra em lançamentos

  • Mais recursos no app do Afinador

  • Atendimento Prioritário

  • Descontos nos produtos Cifra Club

  • Ajude a produzir mais conteúdo

00:00 / 00:00
Capítulos
  • Apresentação
  • Tocando a Música
  • Dicas Primeira Parte
  • Ensinando Primeira Parte
  • Dicas Pré-Refrão
  • Ensinando Pré-Refrão
  • Dicas Interlúdio e Refrão
  • Ensinando Interlúdio e Refrão
  • Dicas Terceira Parte
  • Ensinando Terceira Parte
  • Dicas Quarta Parte
  • Ensinando Quarta Parte
  • Dicas Final
  • Ensinando Final
  • Encerramento

Cifra Club Pro

Aproveite o Cifra Club com benefícios exclusivos e sem anúncios
Cifra Club Pro
Aproveite o Cifra Club com benefícios exclusivos e sem anúncios
OK