Cifra Club

Aprenda

When I'm With You

Jj Heller

Cifra: Principal (violão e guitarra)
tom: Fm (forma dos acordes no tom de C#m) Capotraste na 4ª casa
Intro:

E|-----------------------------|
B|--0---0---0---0---0---0---0--|
G|-----------------------------|
D|-----------------------------|
A|-----------------------------|
E|0---0---0---0---0---0---0----|


Part 1:

E|-------------------------------------------------------------|
B|--0---0---0---0---0---0---0---0---0---0---0---0---0---0---0--|
G|-------------------------------------------------------------|
D|-------------------------------------------------------------|
A|----------------2---2---2---2---4---4---4---4---0---0---0---0|
E|0---0---0---0------------------------------------------------|

E|-------------------------------------------------------------|
B|--0---0---0---0---0---0---0---0---0---0---0---0---0---0---0--|
G|-------------------------------------------------------------|
D|------------------------------------------------2---2---2---2|
A|----------------2---2---2---2---4---4---4---4----------------|
E|4---4---4---4------------------------------------------------|

Re-Intro:

E|------0-------0-------0-----0|
B|--0-------0-------0-------0--|
G|-----------------------------|
D|-----------------------------|
A|-----------------------------|
E|0---0---0---0---0---0---0----|

Part 2:

E|------0---------------0---------------0---------------0-------|
B|--0-------0---0---0-------0---0---0-------0---0---0-------0---|
G|--------------------------------------------------------------|
D|--------------------------------------------------------------|
A|----------------2---2---2---2---4---4---4---4---0---0---0---0-|
E|0---0---0---0-------------------------------------------------|

E|------0---------------0---------------0---------------0-------|
B|--0-------0---0---0-------0---0---0-------0---0---0-------0---|
G|--------------------------------------------------------------|
D|------------------------------------------------2---2---2---2-|
A|----------------2---2---2---2---4---4---4---4-----------------|
E|0---0---0---0-------------------------------------------------|

Chorous:

E|------0---------------0---------------0---------------0-------|
B|--0-------0---0---0-------0---0---0-------0---0---0-------0---|
G|--------------------------------------------------------------|
D|--------------------------------------------------------------|
A|4---4---4---4---0---0---0---0-------------------2---2---2---2-|
E|--------------------------------0---0---0---0-----------------|

E|------0---------------0---------------0---------------0-------|
B|--0-------0---0---0-------0---0---0-------0---0---0-------0---|
G|--------------------------------------------------------------|
D|----------------2---2---2---2---------------------------------|
A|4---4---4---4-----------------------------------2---2---2---2-|
E|--------------------------------4---4---4---4-----------------|

Part 3:

E|------0---------------0---------------0---------------0-------|
B|--0-------0---0---0-------0---0---0-------0---0---0-------0---|
G|--------------------------------------------------------------|
D|--------------------------------------------------------------|
A|----------------2---2---2---2---4---4---4---4---0---0---0---0-|
E|0---0---0---0-------------------------------------------------|

E|------0---------------0---------------0---------------0-------|
B|--0-------0---0---0-------0---0---0-------0---0---0-------0---|
G|--------------------------------------------------------------|
D|------------------------------------------------2---2---2---2-|
A|----------------2---2---2---2---4---4---4---4-----------------|
E|4---4---4---4-------------------------------------------------|

Bridge:

E|------------------------------------------------|
B|------------------------------------------------|
G|--1---1-----5---5-----6---6-----11--11\8--8-----|
D|--2---2-----6---6-----7---7-----12--12\9--9-----|
A|----------------------------------X---------X---|
E|0---0---0-4---4---4/5---5---5-10--X-10\9----X-7-|

E|-------------------------------------------------|
B|-------------------------------------------------|
G|--1---1-----5---5-----6---6-----3---3-----3---3--|
D|--2---2-----6---6-----7---7-----4---4-----4---4--|
A|-------------------------------------------------|
E|0---0---0-4---4---4/5---5---5\2---2---2-2---2----|

Chorous:

E|------0---------------0---------------0---------------0-------|
B|--0-------0---0---0-------0---0---0-------0---0---0-------0---|
G|--------------------------------------------------------------|
D|--------------------------------------------------------------|
A|4---4---4---4---0---0---0---0-------------------2---2---2---2-|
E|--------------------------------0---0---0---0-----------------|

E|------0---------------0---------------0---------------0-------|
B|--0-------0---0---0-------0---0---0-------0---0---0-------0---|
G|--------------------------------------------------------------|
D|----------------2---2---2---2---------------------------------|
A|4---4---4---4-----------------------------------2---2---2---2-|
E|--------------------------------4---4---4---4-----------------|

Intro:

E|-----------------------------|
B|--0---0---0---0---0---0---0--|
G|-----------------------------|
D|-----------------------------|
A|-----------------------------|
E|0---0---0---0---0---0---0----|
Composição de Dave Heller / JJ Heller
Colaboração e revisão:
  • freakz
778 exibições
    • ½ Tom
    • Am
    • Bbm
    • Bm
    • Cm
    • C#m
    • Dm
    • Ebm
    • Em
    • Fm
    • F#m
    • Gm
    • G#m
  • Adicionar à lista

    0 comentários

    Ver todos os comentários
    00:00 / 00:00
    outros vídeos desta música
    repetir qualidade Automático
    Outros vídeos desta música
    00:00 / 00:00
    Automático

    Cifra Club Pro

    Aproveite o Cifra Club com benefícios exclusivos e sem anúncios
    Cifra Club Pro
    Aproveite o Cifra Club com benefícios exclusivos e sem anúncios
    OK