Cifra Club

Tatuajes

Joan Sebastian

Cifra: Principal (violão e guitarra)
Selo Cifra Club: esta cifra foi revisada para atender aos critérios oficiais da nossa Equipe de Qualidade.
tom: G
[Intro] C  D7  C
        D7  C  G

[Tab - Intro]

Parte 1 de 2
     C                       D7  
E|---3-3-3-3--3-3-3-3--2-3-3/5--------------|
B|---5-5-5-5--5-5-5-5--3-5-5/7--------------|
G|-5----------------------------------------|
D|------------------------------------------|
A|------------------------------------------|
E|------------------------------------------|

Parte 2 de 2
     C                     D7     C       
E|---3-3-3-3-3-3-3-3-2-3-4/5--8-7-----------|
B|-5-5-5-5-5-5-5-5-5-3-5-6/7------8-----8-8-|
G|-5--------------------------------9-9-----|
D|------------------------------------------|
A|------------------------------------------|
E|------------------------------------------|

[Primeira Parte]

    G              Bm
Hiriendo mi felicidad
     C       D7
Me alejo, a petición de tu orgullo
     G                        Bm
Me iré, aunque eres mi necesidad
    C         D7                  
Te dejo, pero eso de que te olvide
    G
No sé

[Refrão]

    C                
Tatuajes de tus besos
  D7               G    C  G
Llevo en todo mi cuerpo
    C                     
Tatuados sobre el tiempo
     D7               G
El tiempo que te conocí
       C                 D7   
Se me hizo vicio ver tus ojos
               G
Respirar tu aliento
    C                 D7        
Me voy pero te llevo dentro
    G
De mí

[Solo] C  D7  C 
       D7  C  G 
       C  D7  C  G 

[Tab  Solo]

Parte 1 de 4
     C                       D7  
E|---3-3-3-3--3-3-3-3--2-3-3/5--------------|
B|---5-5-5-5--5-5-5-5--3-5-5/7--------------|
G|-5----------------------------------------|
D|------------------------------------------|
A|------------------------------------------|
E|------------------------------------------|

Parte 2 de 4
     C                     D7     C       
E|---3-3-3-3-3-3-3-3-2-3-4/5--8-7-----------|
B|-5-5-5-5-5-5-5-5-5-3-5-6/7------8-----8-8-|
G|-5--------------------------------9-9-----|
D|------------------------------------------|
A|------------------------------------------|
E|------------------------------------------|

Parte 3 de 4
E|------------------------------------------|
B|---3---3h5-3------------------------------|
G|-4---4-------2-0--2/5---------------------|
D|------------------------------------------|
A|------------------------------------------|
E|------------------------------------------|

Parte 1 de 2
     C                       D7  
E|---3-3-3-3--3-3-3-3--2-3-3/5--------------|
B|---5-5-5-5--5-5-5-5--3-5-5/7--------------|
G|-5----------------------------------------|
D|------------------------------------------|
A|------------------------------------------|
E|------------------------------------------|

Parte 2 de 2
     C                     D7     C       
E|---3-3-3-3-3-3-3-3-2-3-4/5--8-7-----------|
B|-5-5-5-5-5-5-5-5-5-3-5-6/7------8-----8-8-|
G|-5--------------------------------9-9-----|
D|------------------------------------------|
A|------------------------------------------|
E|------------------------------------------|

Parte 4 de 4
E|-----3------------------------------------|
B|------------------------------------------|
G|-2/4----4\2-0-2/4~------------------------|
D|------------------------------------------|
A|------------------------------------------|
E|------------------------------------------|

[Segunda Parte]

  G                Bm
Atendiendo a tu razón
    C          D7
Me marcho, víctima de un alto ego
    G                         Bm
Me voy, con otro amor el corazón
    C         D7            
Me marcho, seguro de que te olvide
      G
No estoy

[Refrão]

    C                
Tatuajes de tus besos
  D7               G    C  G
Llevo en todo mi cuerpo
    C                     
Tatuados sobre el tiempo
     D7               G
El tiempo que te conocí
       C                 D7   
Se me hizo vicio ver tus ojos
               G
Respirar tu aliento
    C                 D7        
Me voy pero te llevo dentro
    G
De mí

    C                
Tatuajes de tus besos
  D7               G    C  G
Llevo en todo mi cuerpo
    C                     
Tatuados sobre el tiempo
     D7               G
El tiempo que te conocí
       C                 D7   
Se me hizo vicio ver tus ojos
               G
Respirar tu aliento
    C                 D7        
Me voy pero te llevo dentro
    G
De mí
    C                 D7        
Me voy pero te llevo dentro
    G  
De mí

[Final] C  G  C  G
00:00 / 00:00
Outros vídeos desta música
Repetir
Outros vídeos desta música
7.684 exibições
  • Simplificar cifra
    • ½ Tom
    • A
    • Bb
    • B
    • C
    • Db
    • D
    • Eb
    • E
    • F
    • F#
    • G
    • Ab
  • Adicionar à lista

Afinação da cifra

Afinador online

    0 comentários

    Ver todos os comentários

    Entre para o Cifra Club PRO

    Tenha acesso a benefícios exclusivos no App e no Site

    • Chega de anúncios

    • Mais recursos no app do Afinador

    • Atendimento Prioritário

    • Aumente seu limite de lista

    • Ajude a produzir mais conteúdo

    00:00 / 00:00

    Cifra Club Pro

    Aproveite o Cifra Club com benefícios exclusivos e sem anúncios
    Cifra Club Pro
    Aproveite o Cifra Club com benefícios exclusivos e sem anúncios
    OK