Cifra Club

Aprenda

Pra Cima , Brasil !

João Alexandre

Cifra: Principal (violão e guitarra)
tom: D
Intro: 
E|----9----7---3----7---3---3---5---3-2--
B|------------------------------3---3-3--
G|-------------0----0---0-------2---2-2--
D|---------7--------------------0---0-0--
A|----0----------------------------------
E|-------------3----3---3----------------

E|----9----7---3----7---3---3---5-----2/3-
B|------------------------------3----3----
G|-------------0----0---0-------2---2-----
D|---------7--------------------0-0-------
A|----0-----------------------------------
E|-------------3----3---3-----------------

 D           D7+/9             E/D
Como será o futuro do nosso país?
 G                 G/A         A        G F#sus4 F#
Surge a pergunta no olhar e na alma do po - vo
 Bm                   F#m/A               G7+ D/F#
Cada vez mais cresce a fome nas ruas, nos morros
 C                Em     Em/D      G/A  A
Cada vez menos dinheiro pra sobreviver

 D              D7+/9             E/D
Onde andará a justiça outrora perdida?
 G                 G/A       A           G F#sus4 F#
Some a resposta na voz e na vez de quem manda
 Bm               F#m/A             G7+ D/F#
Homens com tanto poder e nenhum coração
 C                      Em       Em/D     G/A  A
Gente que compra e que vende a moral da nação

    D D7+/9         C/D  D  D/F#
Brasil    olha pra cima
  G                    D/F#    Esus4 E G/A A
Existe uma chance de ser   novamente feliz
    D D7/+9           C/D D D/F#
Brasil    há uma esperança!
 G        Em          C      G/A     D
Volta teus olhos pra Deus, o Justo Juiz
Compositor não encontrado.
Colaboração e revisão:
  • Gustavo
75.577 exibições
    • ½ Tom
    • A
    • Bb
    • B
    • C
    • Db
    • D
    • Eb
    • E
    • F
    • F#
    • G
    • Ab
  • Adicionar à lista

    0 comentários

    Ver todos os comentários
    00:00 / 00:00
    Outros vídeos desta música
    Repetir Qualidade Automático
    Outros vídeos desta música
    00:00 / 00:00
    Automático

    Cifra Club Pro

    Aproveite o Cifra Club com benefícios exclusivos e sem anúncios
    Cifra Club Pro
    Aproveite o Cifra Club com benefícios exclusivos e sem anúncios
    OK