Cifra Club

Sorte É Ter Você

João Bosco & Vinícius

Cifra: Principal (violão e guitarra)
Tom: E
[Intro] C#m  E  B9  F#

[Solo]

E|---4-4------------------4-4-------------7-4-|
B|--------7-7--5-5-------------7-7--5-5-------|
G|-------------------6-6----------------------|
D|--------------------------------------------|
A|--------------------------------------------|
E|--------------------------------------------|

E|--------------------------------------------|
B|------5-5/7---4~---------7/9--7--2~---------|
G|--------------------------------------------|
D|--------------------------------------------|
A|--------------------------------------------|
E|--------------------------------------------|

    C#m                                   E
Eu venho de sonhos vividos, amores fracassados
                                 B9
Ilusões perdidas, passos caminhados
                                    F#  A  B9
De um deserto que eu tento me esconder

   C#m                                E
Andei por toda a cidade, coração quebrado
                                      B9
Sem querer, eu sempre quis alguém do lado
                              F#  E/G#
E o destino veio e me trouxe você

A                              E
  E o meu coração partido em ruínas
                                B9
Se reconstruiu, no seu olhar menina
                F#m  E/G#
Eu quero te querer
A                                 E
  De tantas Renatas, Flávias e Carinas
                              B9
Conheci mil Anas, muitas Carolinas
     A       B     E  A  B9
Mas sorte é ter você

[Refrão]

  E                                   B9
Amor, se me chamar, se me quiser, eu vou
                       C#m
Pra ser o seu anjo da noite
                            A9
E todo dia te acordar com flores

  E                                   B9
Amor, se me chamar, se me quiser, eu vou
                       C#m
Pra ser o seu anjo da noite
                            A9   B9
E todo dia te acordar com flores

A                              E
  E o meu coração partido em ruínas
                                B9
Se reconstruiu, no seu olhar menina
                F#m  E/G#
Eu quero te querer
A                                 E
  De tantas Renatas, Flávias e Carinas
                              B9
Conheci mil Anas, muitas Carolinas
     A       B     E  A  B9
Mas sorte é ter você

[Refrão]

  E                                   B9
Amor, se me chamar, se me quiser, eu vou
                       C#m
Pra ser o seu anjo da noite
                            A9
E todo dia te acordar com flores

  E                                   B9
Amor, se me chamar, se me quiser, eu vou
                       C#m
Pra ser o seu anjo da noite
                            A9   B9
E todo dia te acordar com flores

[Solo] C#m  E  B9  F#  A9

E|---4----------------4-----7--4~---|
B|--------7---5---2~-----7----------|
G|----------------------------------|
D|----------------------------------|
A|----------------------------------|
E|----------------------------------|

E|----------------------------------|
B|------5-5/7---4~---7/9--7--2~-----|
G|----------------------------------|
D|----------------------------------|
A|----------------------------------|
E|----------------------------------|
exibições 359.835
Acordes para:

    0 comentários

    mostrar mais comentários

    Conseguiu tocar?

    38 tocaram 2 ainda não

    Grave um vídeo tocando Sorte É Ter Você e mande pra gente!

    00:00 / 00:00
    outros vídeos desta música
    repetir qualidade Automático
    Outros vídeos desta música
    00:00 / 00:00
    Automático
    OK