Cifra Club

Aprenda

O amor em paz

João Gilberto

Cifra: Principal (violão e guitarra)
Quer fazer aulas de música com a gente? Responda essas perguntas
e nos ajude nesse projeto! →
tom: A
[Intro]

   C#m7                F#7/+5
E|--------------------------------------------|
B|--5----5-----5------3-----3-----3-----------|
G|--4----4-----4------3-----3-----3-----------|
D|--6----6-----6------2-----2-----2-----------|
A|--4-------4---------------------------------|
E|--------------------2--------2--------------|

[Primeira parte]

     Ebm7  G#7(+5/-9) 
Eu Amei
    C#m7             Ddim            Ebm7   Ebm7   Bm7   Bm6
E amei ai de mim muito mais do que devia amar
     Amaj7  A6
E chorei
      Bbm7/-5       Bbdim          G#maj7  G#7  
Ao sentir que iria sofrer, e me desesperar

   Ebm7            G#7(+5/-9)    
E|--------------------5----5-----5-------------|
B|--7----7-----7------5----5-----5-------------|
G|--6----6-----6------5----5-----5-------------|
D|--8----8-----8------4-------4----------------|
A|--6-------6----------------------------------|
E|---------------------------------------------|

    C#m7              Ddim
E|---------------------------------------------|
B|--5----5-----5------6----6-----6-------------|
G|--4----4-----4------4----4-----4-------------|
D|--6----6-----6------6----6-----6-------------|
A|--4-------4---------5-------5----------------|
E|---------------------------------------------|

   Ebm7              Ebm7              Bm7   
E|--------------------6----6-----6-------------------------|
B|--7----7-----7------7----7-----7-----7----7-----7--------|
G|--6----6-----6------6----6-----6-----7----7-----7--------|
D|--8----8-----8-----------------------7----7-----7--------|
A|--6-------6---------6-------6----------------------------|
E|-------------------------------------7-------7-----------|

    Bm6               Amaj7             A6
E|---------------------------------------------------------|
B|--7----7-----7------5----5-----5------5----5-----5-------|
G|--7----7-----7------6----6-----6------6----6-----6-------|
D|--6----6-----6------6----6-----6------4----4-----4-------|
A|---------------------------------------------------------|
E|--7-------7---------5-------5---------5-------5----------|

    Bbm7/-5           Bbdim
E|----------------------------------------------|
B|--5----5-----5------5----5-----5--------------|
G|--6----6-----6------6----6-----6--------------|
D|--6----6-----6------5----5-----5--------------|
A|----------------------------------------------|
E|--6-------6---------6-------6-----------------|

    G#7M             G#7
E|---------------------------------------------|
B|--4----4-----4------4----4-----4-------------|
G|--5----5-----5------5----5-----5-------------|
D|--5----5-----5------4----4-----4-------------|
A|---------------------------------------------|
E|--4-------4---------4-------4----------------|

[Segunda parte]

    C#m7             F#7/+5
E|---------------------------------------------|
B|--5----5-----5------3--3---------3-----------|
G|--4----4-----4------3--3---------3-----------|
D|--6----6-----6------2--2---------2-----------|
A|--4-------4----------------------------------|
E|--------------------2----------2-------------|

     Ebm7   G#7(+5/-9) 
Foi então
       C#m7               Ddim       Ebm7         
Que da minha infinita tristeza aconteceu você


    Ebm7                 G#7(+5/-9) 
E|-----------------------5---5-----5-----------|
B|-7---------7---7----x--5---5-----5-----------|
G|-6---------6---6----x--5---5-----5-----------|
D|-8---------8---8----x------------------------|
A|---6---------6------x------------------------|
E|-----------------------4------4--------------|

     C#m7                 Ddim           Ebm7 
E|--------------------------------------------------------------|
B|--5---------5---5----x--6---6-----6----7---------7---7----x---|
G|--4---------4---4----x--4---4-----4----6---------6---6----x---|
D|--6---------6---6----x--6---6-----6----8---------8---8----x---|
A|----4---------4------x--5------5---------6---------6------x---|
E|--------------------------------------------------------------|

E|---------------------|
B|--7---7-----7--------|
G|--6---6-----6--------|
D|--8---8-----8--------|
A|--6------6-----------|
E|---------------------|

[Terceira parte]

    Bm7               Bm6
E|---------------------------------------------|
B|--7----7-----7------7----7-----7-------------|
G|--7----7-----7------7----7-----7-------------|
D|--7----7-----7------6----6-----6-------------|
A|---------------------------------------------|
E|--7-------7---------7-------7----------------|

     Amaj7  A6
Encontrei
     Bbm7/-5         Bbdim       G#7M     G#m6
Em você a razão de viver   e de amar em paz
             F#maj7  F#m6
E não sofrer mais
      Emaj7  E6
nunca mais
          Fdim               Edim         G#7/Eb    G#m7/-5/D
Porque o amor é a coisa mais triste, quando se desfaz
          Fdim               Bbdim          G#m7      G#m9  
Porque o amor é a coisa mais triste, quando se desfaz

   Amaj7              A6                Bbm7/-5
E|----------------------------------------------------------|
B|--5----5-----5------5----5-----5------5----5-----5--------|
G|--6----6-----6------6----6-----6------6----6-----5--------|
D|--6----6-----6------4----4-----4------6----6-----6--------|
A|----------------------------------------------------------|
E|--5-------5---------5-------5---------6-------6-----------|

    Bbdim            G#7M               G#m6
E|----------------------------------------------------------|
B|--5----5-----5------4-----4-----4------5----5-----5-------|
G|--6----6-----6------5-----5-----5------5----5-----5-------|
D|--5----5-----5------5-----5-----5------4----4-----4-------|
A|----------------------------------------------------------|
E|--6-------6---------4--------4---------4-------4----------|

   F#amj7             F#m6
E|---------------------------------------------|
B|--2----2-----2------2----2-----2-------------|
G|--3----3-----3------2----2-----2-------------|
D|--3----3-----3------1----1-----1-------------|
A|---------------------------------------------|
E|--2-------2---------2-------2----------------|

    Emaj7            E6
E|---------------------------------------------|
B|--0---0-----0------2---2-----2---------------|
G|--1---1-----1------1---1-----1---------------|
D|--1---1-----1------0---0-----0---------------|
A|---------------------------------------------|
E|--0------0---------0------0------------------|
Composição de Antonio Carlos Jobim / Vinícius de Moraes
Colaboração e revisão:
  • Bruno Alves
11.413 exibições
    • ½ Tom
    • A
    • Bb
    • B
    • C
    • Db
    • D
    • Eb
    • E
    • F
    • F#
    • G
    • Ab
  • Adicionar à lista

    0 comentários

    Ver todos os comentários

    Conseguiu tocar?

    1 Tocaram 2 Ainda não

    Grave um vídeo tocando O amor em paz e nos envie!

    00:00 / 00:00
    Outros vídeos desta música
    Repetir Qualidade Automático
    Outros vídeos desta música
    00:00 / 00:00
    Automático

    Cifra Club Pro

    Aproveite o Cifra Club com benefícios exclusivos e sem anúncios
    Cifra Club Pro
    Aproveite o Cifra Club com benefícios exclusivos e sem anúncios
    OK