Cifra Club

Poeira da Estrada

João Paulo e Daniel

Cifra: Principal (violão e guitarra)
Selo Cifra Club: esta cifra foi revisada para atender aos critérios oficiais da nossa Equipe de Qualidade.
tom: B
[Intro] B

E|-2--7-7-7--6--6--4-4-4--2--2--4-4-4--2--2--2--0-0-1-2---|
B|-4--9-9-9--7--7--5-5-5--4--4--5-5-5--4--4--4--2-2-3-4---|
G|--------------------------------------------------------|
D|--------------------------------------------------------|
A|--------------------------------------------------------|
E|--------------------------------------------------------|

E|-2--7-11-7--6-9-6--4-7-4--2-----2-2-2--6-6-6--2-2-0-----|
B|-4--9--9-9--7-7-7--5-5-5--4--4--4-4-4--7-7-7--4-4-2--4--|
G|-----------------------------4-----------------------4--|
D|--------------------------------------------------------|
A|--------------------------------------------------------|
E|--------------------------------------------------------|

            B
Levantei a tampa voltei ao passado
                                  F#
Meu mundo guardado dentro de um baú

Encontrei no fundo todo empoeirado
                                B
O meu velho laço bom de couro cru

Me vi no arreio do meu alazão
             B7               E
Berrante na mão no meio da boiada
                            B
Abracei meu laço velho companheiro
                              F#7
Bateu a saudade, veio o desespero
             E         F#           B
Sentindo o cheiro da poeira da estrada

            F#      E        B
Estrada que era vermelha de terra
                  F#         E         B
Que o progresso trouxe o asfalto e cobriu
             F#       E      B
Estrada que hoje chama rodovia
                 F#       E        B
Estrada onde um dia meu sonho seguiu
            E              B
Estrada que antes era boiadeira
             F#         E            B
Estrada de poeira, de sol, chuva e frio
               E                  B
Estrada ainda resta um pequeno pedaço
             F#          E        B
A poeira do laço que ainda não saiu

( B )

              B
Poeira da estrada, só resta a saudade
                         F#
Poeira na cidade é a poluição

Não se vê vaqueiros tocando boiada
                          B
Trocaram cavalo pelo caminhão

E quando me bate saudade do campo
                 B7               E
Pego a viola e canto a minha solidão
                               B
Não me resta muito aqui na cidade
                                F#7
E quando a tristeza pega de verdade
             E         F#         B
Eu mato a saudade nas festas de peão

            F#      E        B
Estrada que era vermelha de terra
                  F#        E         B
Que o progresso trouxe o asfalto e cobriu
             F#      E      B
Estrada que hoje chama rodovia
                 F#      E        B
Estrada onde um dia meu sonho seguiu
            E              B
Estrada que antes era boiadeira
             F#        E            B
Estrada de poeira, de sol, chuva e frio
               E                  B
Estrada ainda resta um pequeno pedaço
             F#         E        B
A poeira do laço que ainda não saiu

[Final] B

E|--11--9-7-6---9---2-2-0-----|
B|--12-11-9-7-------4-4-2--4--|
G|-------------------------4--|
D|----------------------------|
A|----------------------------|
E|----------------------------|
Outros vídeos desta música
521.650 exibições
    • ½ Tom
    • A
    • Bb
    • B
    • C
    • Db
    • D
    • Eb
    • E
    • F
    • F#
    • G
    • Ab
  • Adicionar à lista

Afinação da cifra

Afinador online

    0 comentários

    Ver todos os comentários

    Entre para o Cifra Club PRO

    Tenha acesso a benefícios exclusivos no App e no Site

    • Chega de anúncios

    • Mais recursos no app do Afinador

    • Atendimento Prioritário

    • Aumente seu limite de lista

    • Ajude a produzir mais conteúdo

    Cifra Club Pro

    Aproveite o Cifra Club com benefícios exclusivos e sem anúncios
    Cifra Club Pro
    Aproveite o Cifra Club com benefícios exclusivos e sem anúncios
    OK