Cifra Club

Aprenda

Friends

Joe Satriani

Cifra: Principal (violão e guitarra)
Quer fazer aulas de música com a gente? Responda essas perguntas
e nos ajude nesse projeto! →
tom: E
Beat:  Q=92
Puslo: 4/4
Afinação: 

Guitarra 1:  Afinação em D, meio tom Abaixo (C# G# C# F# A# C#)
Guitarra 2:  Afinação em D, meio tom Abaixo (C# G# C# F# A# C#)
Guitarra 3:  Afinação em D, meio tom Abaixo (C# G# C# F# A# C#)


Pensei em transcrever essa Música (que é muito boa por sinal) com a 
Afinação Normal, mas, como têm corda solta durante a Música, não 
ficaria muito "idêntico".
A música não é dificil, bastar treinar, aqui o que vale é o bom 
gosto e muito, mas, muito Feeling (como muitas Músicas do Satriani). 

 
   Gtr I
                                                     3x
||----------------------|----------------------------||
||o---3-----------------|---------------------------o||
||------2---2-----------|-------2-(2)-2-2-2-4p2-4p2--||
||--0-----0-------------|-------2-(2)-2-2---2---2----||
||o-0-------------------|-----0-0-(0)-0-0-----------o||
||--0---------0-4-0-5-0-|-5s7------------------------||


|-----------------------|----------------|
|---3-------------------|-----3-(3)------|
|-----2-----------------|-----2-(2)------|
|-4-------------0-------|---0--------0---|
|-2-----0-------------0-|-0--------------|
|---------4h5-5---5h7---|-0--------------|


Começo da Introdução
  C#5
  Gtr I
|----------------------------|
|---3------------------------|
|--------2---2---------------|
|-0--------0-----------------|
|-0--------------------------|
|-0-------------0-4----0-5-0-|
|
| Gtr II
|               ~~
|-----17-------19---17-------|
|----------------------------|
|----------------------------|
|----------------------------|
|----------------------------|
|----------------------------|

|----------------------------------------------------|
|----------------------------------------------------|
|------------2-(2)--------2-----------2-2-4p=2--4p=2-|
|------------2-(2)--------2-----------2---2-----2----|
|---------0--0-(0)--------0-----------0--------------|
|--5s===7--------------------------------------------|
|
|----------------------------------------------------|
|-15S17-----17-----17s19-17-(17)-(17)-------15-------|
|----------------------------------------------16-14-|
|----------------------------------------------------|
|----------------------------------------------------|
|----------------------------------------------------|

  Gtr I
|------------------------------------------|
|------3-----------------------------------|
|--------------2-----2---------------------|
|-0---------------0------------------------|
|-0----------------------------------------|
|-0---------------------0-------4----0-5-0-|
|
| Gtr II
|                                  ~~
|---17---(17)-17-17-17-19-(19)S22-17-------|
|------------------------------------------|
|------------------------------------------|
|------------------------------------------|
|------------------------------------------|
|------------------------------------------|

|---------------------------------------------------|
|---------------------------------------------------|
|------------2-(2)-------2---------2--2--4p=2--4p=2-|
|------------2-(2)-------2---------2-----2-----2----|
|---------0--0-(0)-------0---------0----------------|
|--5s===7-------------------------------------------|
|
|                                                 ~~
|---------------------------------------------------|
|-15S17-----17-----17s19---17-(17)---------------15-|
|---------------------------------------14-14-16----|
|---------------------------------------------------|
|---------------------------------------------------|
|---------------------------------------------------|

|------------------------------------------------|
|---------3--------------------------------------|
|---------------2-----2--------------------------|
|---0--------------0-----------------------------|
|---0--------------------------------------------|
|---0---------------------0--------4--0--5-----0-|
|
| 
|   ~~~~
|------------------------------------------------|
|-(15)---------------15-(15)-17b20r=====17b19====|
|------16---14-14-16-----------------------------|
|------------------------------------------------|
|------------------------------------------------|
|------------------------------------------------|

|-------------------------------------------------|
|-------------------------------------------------|
|---------------2-(2)---2---------2-2--4p=2--4p=2-|
|---------------2-(2)---2---------2----2-----2----|
|----------0----0-(0)---0---------0---------------|
|---5s=7------------------------------------------|
|
|                          ~~~~~~~              ~~
|-------------------------------------------------|
|-(17)---(17)rp15-17S19---17-(17)-----17-15----15-|
|-------------------------------------------16----|
|-------------------------------------------------|
|-------------------------------------------------|
|-------------------------------------------------|

|----------------------------------|-----------------|
|-----3----------------------------|-----3-(3)-------|
|-----------2----------------------|-----2-(2)-------|
|--4----------------------0--------|---0--------0----|
|--2----------0------------------0-|-0---------------|
|-------------------4h5-5----5h7---|-0---------------|
|
| 
|  ~~       ~~      ~~~~~~~~~~~~~~~~~~~
|----------------------------------|-----------------|
|-15-15-17-15----------------------|-----------------|
|---------------14S16-------14-----|-7---------------|
|----------------------------------|-----------------|
|----------------------------------|-----------------|
|----------------------------------|-----------------|


  
|---------------------------------------|--------------------------------------|
|---3-----------------------------------|--------------------------------------|
|--------2----2-------------------------|---------2--(2)-----2----2-2-4p2-4p2--|
|-0---------0---------------------------|---------2--(2)-----2----2---2---2----|
|-0-------------------------------------|------0--0--(0)-----0----0------------|
|-0-----------------0-4----------0--5-0-|--5s7---------------------------------|
|
| 
|-----14---14---14s15---14-(14)-12s10---|-12-----12-(12)-14s10-12--------------|
|---------------------------------------|--------------------------------------|
|-----11---11---11s12---11-(11)--9s=7---|--9------9--(9)-11s=7--9--------------|
|---------------------------------------|--------------------------------------|
|---------------------------------------|--------------------------------------|
|---------------------------------------|--------------------------------------|


 
|----------------------------------------|
|---3------------------------------------|
|--------2----2--------------------------|
|-0---------0----------------------------|
|-0--------------------------------------|
|-0-----------------0-4-------0--5-----0-|
|
| 
|                   ~~                 ~~~
|-----14s==15---15s17---(17)-14s15-15s17-|
|----------------------------------------|
|-----11s==12---12s14---(14)-11s12-12s14-|
|----------------------------------------|
|----------------------------------------|
|----------------------------------------|

|--------------------------------------|
|--------------------------------------|
|----------2-(2)-----2----2-2-4p2-4p2--|
|----------2-(2)-----2----2---2---2----|
|--------0-0-(0)-----0----0------------|
|---5s=7-------------------------------|
|
|~~~~~~                 ~~
|-(17)-----------12s10-12--------------|
|--------------------------------------|
|-(14)------------9s=7--9--------------|
|--------------------------------------|
|--------------------------------------|
|--------------------------------------|

|--------------------------------------|
|-----3--------------------------------|
|------------2----2--------------------|
|--0------------0----------------------|
|--0-----------------------------------|
|--0-----------------0-4--------0--5-0-|
|
|-10-10-(10)---12---14---15s14-12-10---|
|--------------------------------------|
|--7--7--(7)----9---11---12s11--9--7---|
|--------------------------------------|
|--------------------------------------|
|--------------------------------------|

|------------------------------------------|
|------------------------------------------|
|---------2--(2)-----2----2-2---4p==2--4p2-|
|---------2--(2)-----2----2-----2------2---|
|------0--0--(0)-----0----0----------------|
|--5s7-------------------------------------|
|
|-12-----12-(12)---------------------------|
|----------------12s10-10-----(10)-12S14---|
|--9------9--(9)---------------------------|
|-----------------9s=7--7------(7)--9S11---|
|------------------------------------------|
|------------------------------------------|

|--------------------------------------|-----------------|
|----3---------------------------------|-----3-(3)-------|
|------------2-------------------------|-----2-(2)-------|
|--4--------------------------0--------|---0--------0----|
|--2--------------0------------------0-|-0---------------|
|-----------------------4h5-5----5h7---|-0---------------|
|
|  ~~                                    ~
|--------------------------------------|-----------------|
|-15---(15)-12s10---10s12-------10-----|-3---------------|
|--------------------------------------|-----------------|
|-12---(12)--9s=7----7s=9--------7-----|-0---------------|
|--------------------------------------|-----------------|
|--------------------------------------|-----------------|


 Solo
 
|---------------------------------------------------|
|---------3-(3)---------------3-(3)-----------------|
|---------------0------0--------------2-----------2-|
|-------0----------0--------0-----------------0-----|
|---------------------------------------------------|
|--5----------------------0-------------------------|
|
|  ~~~~~                  ~~
|-17b19-----------17r-15-14-----15--(15)b17r(15)-14-|
|---------------------------------------------------|
|---------------------------------------------------|
|---------------------------------------------------|
|---------------------------------------------------|
|---------------------------------------------------|

|---------------------------------------------|
|-----------2-(2)----------------2-(2)--------|
|-----------------2-------2------------2---2--|
|---------2-----------2--------2---------2----|
|--0-------------------------0----------------|
|---------------------------------------------|
|
|                            ~~
|---------------------------------------------|
|-15b17.5r==========(15)-15-------------------|
|---------------------------14----------------|
|---------------------------------------------|
|---------------------------------------------|
|---------------------------------------------|

|-------------------------------------------------------|
|----------3----(3)------------------3-----(3)----------|
|--------------------0-------0------------------2-----2-|
|-------0-----------------0-------0----------------0----|
|-------------------------------------------------------|
|--5----------------------------0-----------------------|
|
|                               ~~
|-21b22r==21b22r====21b22r==21-22---22pb23r21--19-21-22-|
|-------------------------------------------------------|
|-------------------------------------------------------|
|-------------------------------------------------------|
|-------------------------------------------------------|
|-------------------------------------------------------|

|--------------------------------------------------------|
|---------------------2--(2)-----------------2-(2)-------|
|-----------------------------2-----2--------------2---2-|
|--------------2-----------------2---------2---------2---|
|---------0------------------------------0---------------|
|--------------------------------------------------------|
|
|         ~~~~                      ~~~~~
|-22b24-(22)--22b24-(22)-22--21-22-22b24-----------------|
|--------------------------------------------------------|
|--------------------------------------------------------|
|--------------------------------------------------------|
|--------------------------------------------------------|
|--------------------------------------------------------|

|----------------------------------------------------------------|
|---------3--------(3)-----------------------3-(3)---------------|
|-----------------------0-----0---------------------2----------2-|
|-------0------------------0--------------0----------------0-----|
|----------------------------------------------------------------|
|---5----------------------------0-------------------------------|
|
|-(22)\-----17b19-(17)-17-16-15-------14-15-16-17----------------|
|-------------------------------17b18--------------17b19r(17)-15-|
|----------------------------------------------------------------|
|----------------------------------------------------------------|
|----------------------------------------------------------------|
|----------------------------------------------------------------|

|------------------------------------------------|
|---------2-(2)--------------------2-(2)---------|
|----------------2--------2--------------2---2---|
|-------2-------------2---------2----------2-----|
|--0-------------------------0-------------------|
|------------------------------------------------|
|
|                               ~~~
|------------------------17----------------------|
|-17b19r====15-----------------------------------|
|---------------16b18---(16)---14r---------------|
|------------------------------------------------|
|------------------------------------------------|
|------------------------------------------------|

|---------------------------------------------------|
|------------3-(3)----------------------------------|
|----------2----------2-----------------------------|
|--------4------------------------------0-----------|
|--2---------------------0------------------------0-|
|---------------------------4h====5--5--------5h7---|
|
|-21b22=============================================|
|---------------------------------------------------|
|---------------------------------------------------|
|---------------------------------------------------|
|---------------------------------------------------|
|---------------------------------------------------|
|
| Gtr III
|--------------------17-19-------17-19-------17-----|
|--------------18b19-------18b19-------18b19--------|
|---------------------------------------------------|
|---------------------------------------------------|
|---------------------------------------------------|
|---------------------------------------------------|

|--------------------------------|
|------------3-(3)---------------|
|------------2-(2)---------------|
|---------0-----------0----------|
|---0----------------------------|
|---0----------------------------|
|
|   ~~~~~~
|-(21)--------------------(21)r--|
|--------------------------------|
|--------------------------------|
|--------------------------------|
|--------------------------------|
|--------------------------------|
|
|            ~~~~~~~~~~~~
|--------------------------------|
|--18b19-------------------------|
|--------------------------------|
|--------------------------------|
|--------17-17------(17)---------|
|--------------------------------|

Interludio
|---------------------------|
|---------------------------|
|---------------------------|
|---0-(0)-------0-------0---|
|---------------------------|
|-4-------4-4h5---5-5h7---7-|
|
|---------------------------|
|---------------------------|
|---------------------------|
|---------------------------|
|---------------------------|
|---------------------------|

|----------------------------------------------------|
|----3-(3)-------------------------------------------|
|----2-(2)-------------------------------------------|
|-0--0-(0)-------------------------------------------|
|-0--------------------------------------------------|
|-0--------------------------------------------------|
|
|                                 \1/   \1/   \1/
|------14-----15----14----15-14-(14)--(14)--(14)-----|
|---15-----15----15----15----15-(15)--(15)--(15)-----|
|----------------------------------------------------|
|----------------------------------------------------|
|----------------------------------------------------|
|----------------------------------------------------|

|---------------------------------------------|
|-------3-------------------------------------|
|-------------2-----2-------------------------|
|-0-------------0-----------------------------|
|-0-------------------------------------------|
|-0---------------------0-4---------0-5---0---|
|
|---------------------------------------------|
|---------------------------------------------|
|---------------------------------------------|
|---4p2p0---0---4p2p0---0-4p2p0---0---4p2p0---|
|---------4-----------4---------4-----------4-|
|---------------------------------------------|

|---------------------------------------------------------------|
|---------------------------------------------------------------|
|---------------2---(2)------2-----------2-------2---4p2-4p2----|
|---------------2---(2)------2-----------2-----------2---2------|
|-----------0---0---(0)------0-----------0----------------------|
|-5s======7-----------------------------------------------------|
|
|---------------------------------------------------------------|
|---------------------------------------------------------------|
|---------------------------------------------------------------|
|-0h2p0-----0--------0h2p0---0-------0h2p0---0------------------|
|-------4-----4p2p0--------4---4p2p0-------4---4p2p0---2-0-0----|
|---------------------------------------------------------------|

|-------------------------------------------------------|
|---------3---------------------------------------------|
|---------------2-----2---------------------------------|
|-0-----------------0-----------------------------------|
|-0-----------------------------------------------------|
|-0-----------------------0------4---------0-----5-0----|
|
|-------------------------------------------------------|
|-------------------------------------------------------|
|-------------------------------------------------------|
|---0h2h4-0h4h5-0h5h7-0h7h9-0h9h11-0h11h12-0h12h14-0h14h|
|-------------------------------------------------------|
|-------------------------------------------------------|

|-------------------------------------------------------------------------|
|-------------------------------------------------------------------------|
|--------------2----(2)-------2---------2-------2-----4p====2--4p=2-------|
|--------------2----(2)-------2---------2-------------2--------2----------|
|------------0-0----(0)-------0---------0---------------------------------|
|--5s=====7---------------------------------------------------------------|
|
|-------------------------------------------------------------------------|
|-------------------------------------------------------------------------|
|-------------------------------0h16h18-0-18-19-0-19-21b23rp==19-21b23----|
|-16-0h16h==17-0h17h19--0h19h21-------------------------------------------|
|-------------------------------------------------------------------------|
|-------------------------------------------------------------------------|

|----------------------------------------------------------------------------|
|-------------------3--------------------------------------------------------|
|----------------------------2--------2--------------------------------------|
|---0-----------------------------0------------------------------------------|
|---0------------------------------------------------------------------------|
|---0-------------------------------------0------4-----------------0-----5-0-|
|
|----------------------------------------------------------------------------|
|-------22--------------22-----------22---------22---------------------------|
|-(21)-(21)-21b23-(21)-(21)-21b23---(21)-21b23-(21)r-21b23r(21)p19------19---|
|--------------------------------------------------------------------21------|
|----------------------------------------------------------------------------|
|----------------------------------------------------------------------------|

|-------------------------------------------|
|-------------------------------------------|
|---------------2-(2)--2-------2-2-4p2-4p2--|
|---------------2-(2)--2-------2---2---2----|
|------------0--0-(0)--0-------0------------|
|--5s====7----------------------------------|
|
|                            ~~
|-19b21====(19)r======19-17-----------------|
|---------------------------20--------------|
|-------------------------------------------|
|-------------------------------------------|
|-------------------------------------------|
|-------------------------------------------|

|------------------------------------------------------|
|-------3----------------------------------------------|
|---------2--------------------------------------------|
|--4---------------------------0-----------------------|
|--2----------0-----------------------------------0----|
|--------------------4h==5--5------------5h===7--------|
|
|  ~~~~~
|-20b22------17b19-(17)r17-16-15-----------------------|
|--------------------------------17b19r(17)-(17)-15----|
|---------------------------------------------------16-|
|------------------------------------------------------|
|------------------------------------------------------|
|------------------------------------------------------|

|-----------------------------------------------|
|-------------3-(3)-----------------------------|
|-------------2-(2)-----------------------------|
|----------0------------------0-----------------|
|---0-------------------------------------------|
|---0-------------------------------------------|
|
|                                       ~~~~~~~~
|-----------------------------------------------|
|-----------------------------------------------|
|-(16)-14---------------------------------------|
|---------16-14-----------------14b16-(14)-(14)-|
|---------------17--14-17-14-17-----------------|
|-----------------------------------------------|

Solo 2
|------------------------------------------------------------|
|------------3---(3)-----------------------------3-(3)-------|
|---------------------0----0---------------------------2---2-|
|--------0---------------0---------------------0---------0---|
|------------------------------------------------------------|
|--5--------------------------0------------------------------|
|
|  ~~~~~~                ~~
|-17b19====(17)r-17--15-14---15b17==(15)r(15)-14-------------|
|------------------------------------------------------------|
|------------------------------------------------------------|
|------------------------------------------------------------|
|------------------------------------------------------------|
|------------------------------------------------------------|

|----------------------------------------------|
|---------------2--(2)-----------2-(2)---------|
|----------------------2---2-----------2---2---|
|----------2-------------2-----2---------2-----|
|--0-------------------------0-----------------|
|----------------------------------------------|
|
|                   ~~~
|----------------------------------------------|
|-15b17==(15)r(15)-----------------------------|
|------------------14--------------------------|
|----------------------------------------------|
|----------------------------------------------|
|----------------------------------------------|

|-----------------------------------|
|-------3-(3)-----------3-(3)-------|
|-------------0---0-----------2---2-|
|-----0---------0-----0---------0---|
|-----------------------------------|
|--5----------------0---------------|
|
|-10--9-7--5--3-2-------------------|
|-12-10-8--7--5-3-------------------|
|-----------------------------------|
|-----------------------------------|
|-----------------------------------|
|-----------------------------------|

|--------------------------------------------|
|-------2-(2)----------------2--(2)----------|
|-------------2---2-----------------2---2----|
|-----2---------2--------2------------2------|
|-0-----------------0------------------------|
|--------------------------------------------|
|
|                            ~~~
|-------5-----5---5--------------------------|
|-----5----5----5----------------------------|
|-7b9---------------7b9-(7)-(7)--------------|
|--------------------------------------------|
|--------------------------------------------|
|--------------------------------------------|

|----------------------------------------------------------------------|
|---------3-(3)-------------------3--(3)-------------------------------|
|----------------0----0--------------------2----------------------2----|
|----0-------------0----------0--------------------------0-------------|
|----------------------------------------------------------------------|
|-5----------------------0---------------------------------------------|
|
|    ~~~~~               ~~~~~
|----------------------------------------------------------------------|
|---15b17-------12---14-14b15---(14)-----(14)r-(14)b15-(14)r(14)-12----|
|-------------------------------------------------------------------14-|
|----------------------------------------------------------------------|
|----------------------------------------------------------------------|
|----------------------------------------------------------------------|

|--------------------------------------------------------------------|
|-------------------2---(2)---------------------------2---(2)--------|
|-----------------------------2-------2-----------------------2---2--|
|--------------2------------------2---------------2-------------2----|
|--0--------------------------------------0--------------------------|
|--------------------------------------------------------------------|
|
|                                                          ~~~
|--------------------------------------------------------------------|
|-12-14-12-10-12-10-8-7-10--8-7-5-7-8-7-5-7-5-----5------------------|
|---------------------------------------------7-6---7-6-4--2---------|
|--------------------------------------------------------------------|
|--------------------------------------------------------------------|
|--------------------------------------------------------------------|

|----------------------------------------------------------------------|
|-----------3-(3)------------------------------------------------------|
|---------2-------2----------------------------------------------------|
|-------4---------------------------------0----------------------------|
|--2--------------------0-------------------------------------0--------|
|--------------------------4h====5--5----------------5h===7------------|
|
|  ~~~~~
|-------------------10----12b14-10-------10----------------------------|
|----------------------10----------13b15----13b15==(13)r(13)-10--------|
|-14b16---------------------------------------------------------12pb14r|
|----------------------------------------------------------------------|
|----------------------------------------------------------------------|
|----------------------------------------------------------------------|

|-------------------------------------|
|-----------3-(3)---------------------|
|-----------2-(2)---------------------|
|--------0------------------0---------|
|--0----------------------------------|
|--0----------------------------------|
|
|                           ~~
|-------------------------------------|
|-------------------------------------|
|-12-10-------10-----12-10------------|
|-------12--------12-------12--(12)\--|
|----------12-------------------------|
|-------------------------------------|

|-----------------------------------------------------|
|--------------3--(3)---------------------------------|
|-----------2---------2-------------------------------|
|-------4------------------------------0--------------|
|-----2-----------------0--------------------------0--|
|-----------------------------4h5---5--------5h7------|
|
|----------10----(10)--------------14-------------15--|
|-----------------------------------------------------|
|-10s11---(11)---(11)-----11s14---(14)---14s16---(16)-|
|-----------------------------------------------------|
|-----------------------------------------------------|
|-----------------------------------------------------|

|-------------------------|
|----------3-(3)----------|
|----------2-(2)----------|
|-------0------------0----|
|-----0-------------------|
|-----0-------------------|
|
|                    ~~
|---------17--------22----|
|-------------------------|
|-16s19----------19-------|
|-------------------------|
|-------------------------|
|-------------------------|

    PM-------------------|
|---------------------------------|
|---------------------------------|
|---------------------------------|
|---------------------------------|
|---x---5--5-5--x---x--x----------|
|-------------------------4-------|
|
|   ~~~~~~~~~~~~~~
|--17-(17)-----19-(19)---17-(17)--|
|---------------------------------|
|---------------------------------|
|---------------------------------|
|---------------------------------|
|---------------------------------|

         PM--|
|---------------------------------------------|
|---------------------------------------------|
|--------2-x-2--x--x---x---2----(2)----(2)----|
|--------2-x-2--x--x---x--(2)----2---2--2-----|
|--------0-x-0--x--x---x----------------------|
|---------------------------------------------|
|
|                  ~~~~~~~~~~~~~~~~~
|---------------------------------------------|
|-15S17-17-----19-17-(17)------(17)-15--------|
|--------------------------------------16--14-|
|---------------------------------------------|
|---------------------------------------------|
|---------------------------------------------|

        PM-------------------|
|-------------------------------------|
|-------------------------------------|
|-------------------------------------|
|---x---7--7--7--7--7-7-------7-------|
|---x---5--5--5--5--5-0-------5-------|
|--------------------------------4-5--|
|
|       ~~~~                     ~~
|--17-(17)---17-17-19---(19)S22-17----|
|-------------------------------------|
|-------------------------------------|
|-------------------------------------|
|-------------------------------------|
|-------------------------------------|

   PM|        PM----------|          PM----------|
|------------------------------------------------------|
|------------------------------------------------------|
|--2--2-------2------2-----2--x------2-2-2--2-----2----|
|--2--2-------2------2-----2--x------2-2-2--2-----2----|
|--0--0---x---0---x--0-----0--x------0-0-0--0-----0----|
|------------------------------------------------------|
|
|                             ~~
|------------------------------------------------------|
|-15S17-(17)-17-(17)---17s19-17-(17)----------------15-|
|------------------------------------------14-14-16----|
|------------------------------------------------------|
|------------------------------------------------------|
|------------------------------------------------------|

|--------------------------------------------|
|---------3----------------------------------|
|---------------2-----2----------------------|
|---0--------------0-------------------------|
|---0----------------------------------------|
|---0---------------------0---4----0-5--0----|
|
|--------------------------------------------|
|-(15)---------------15-(15)-17b19-----17b19-|
|------16---14-14-16-------------------------|
|--------------------------------------------|
|--------------------------------------------|
|--------------------------------------------|

|----------------------------------------------|
|----------------------------------------------|
|------------2-(2)---2---------2-2--4p=2--4p=2-|
|------------2-(2)---2---------2----2-----2----|
|---------0--0-(0)---0---------0---------------|
|---5s=7---------------------------------------|
|
|                       ~~~~~~~
|----------------------------------------------|
|-(17)---17-15-17s19---17-(17)-----17-15----15-|
|----------------------------------------16----|
|----------------------------------------------|
|----------------------------------------------|
|----------------------------------------------|

|-----------------------------------|---------------------------------------|
|------3----------------------------|---3-(3)------------3--3--(3)--3-------|
|------------2----------------------|---------2---2------2--4--(4)--2--2--2-|
|---4----------------------0--------|-----------0--------0--0--(0)--0--2--0-|
|---2----------0------------------0-|---------------------------------------|
|--------------------4h5-5----5h7---|-0--------------0----------------------|
|
|                                     ~~~~~~~~~~~~~~~~~~
|-----------------------------------|---------------------------------------|
|-(15)---17-15----------------------|---------------------------------------|
|----------------14S16-------14-----|-7-------------(7)-14-16-(16)-14-16-14-|
|-----------------------------------|---------------------------------------|
|-----------------------------------|---------------------------------------|
|-----------------------------------|---------------------------------------|

|-----------------------------------------|
|-------3----(3)----3---------------------|
|-----------------------------------------|
|----4-----------------------4-4------5-5-|
|-2---------------------------------------|
|------------------------3S4------4S5-----|
|
|                        ~~~~
|-----------------------------------------|
|---15-15-15s17--15-----------------------|
|----------------------/16-------14-------|
|-----------------------------------------|
|-----------------------------------------|
|-----------------------------------------|

|------------------------------------------|
|---3-(3)-------------------3--3-(3)-3-----|
|---------2---------2-------2--4-(4)-2-2-2-|
|----------------0----------0--0-(0)-0-2-0-|
|------------------------------------------|
|-0--------------------0-------------------|
|
|------------------------------------------|
|---------------------10-------------------|
|-7---(7)-9pb11r(9)p7----9r(9)p7-----------|
|---------------------------------9--7-9-7-|
|------------------------------------------|
|------------------------------------------|

|-----------------------------------|
|-----3-(3)----3--------------------|
|-----------------------------------|
|---4------------------4-4------5-5-|
|-2---------------------------------|
|------------------3S4------4S5-----|
|
| ~         ~~~~~~~~~~~~~~~~~~~~~~~~~
|-----------------------------------|
|-----------------------------------|
|-7------9--7-(7)-16-------14-------|
|-----------------------------------|
|-----------------------------------|
|-----------------------------------|

|--------------------------------------------------------------------|
|----3--(3)---------------------------3--3-----(3)--3----------------|
|------------2----------2-------------2--4-----(4)--2--2-------2-----|
|-------------------0-----------------0--0-----(0)--0--2-------0-----|
|--------------------------------------------------------------------|
|--0-----------------------0-----------------------------------------|
|
|~~~~~~~~~~~
|----------------------15------------15------------15----------------|
|-15---(15)-17b19-(17)----17b19-(17)----17b19-(17)----17pb19r(17)----|
|--------------------------------------------------------------------|
|--------------------------------------------------------------------|
|--------------------------------------------------------------------|
|--------------------------------------------------------------------|


                                       
|-------------------------------------|------------------------|
|-----------3-(3)-3-------------------|---3-(3)--(3)---3-3-3-3-|
|-------------------------------------|---2-(2)--(2)---2-0-0h2-|
|--------4---------------4-4------5-5-|---0-(0)--(0)---4-0-0-0-|
|--2----------------------------------|------------------------|
|--------------------3S4------4S5-----|-0------------0---------|
|
|              ~~~~~~~~~
|-------------------------------------|------------------------|
|-15----15-17-15----------------------|------------------------|
|----16-------------16-------14-------|---7-(7)--(7)-----------|
|-------------------------------------|-0----------------------|
|-------------------------------------|------------------------|
|-------------------------------------|----------------4-5-5-7-|

|------------------------|------------------------|
|---3-(3)--(3)---3-3-3-3-|---3-(3)--(3)---3-3-3-3-|
|---2-(2)--(2)---2-0-0h2-|---2-(2)--(2)---2-0-0h2-|
|---0-(0)--(0)---4-0-0-0-|---0-(0)--(0)---4-0-0-0-|
|------------------------|------------------------|
|-0------------0---------|-0------------0---------|
|
|------------------------|------2---(2)-----------|
|------------------------|---3-(3)--(3)-----------|
|---7-(7)--(7)-----------|---2-(2)--(2)-----------|
|-0----------------------|---0-(0)--(0)-----------|
|------------------------|------------------------|
|----------------4-5-5-7-|-0------------x-4-5-5-7-|

|----------|------------|--------*|
|-3--------|-(3)--------|-(3)----*|
|-2--------|-(2)--------|-(2)----*|
|-0--------|-(0)--------|-(0)----*|
|-0--------|-(0)--------|-(0)----*|
|-0--------|-(0)--------|-(0)----*|
|
|----------|------------|--------*|
|-3--------|-(3)--------|-(3)----*|
|-2--------|-(2)--------|-(2)----*|
|-0--------|-(0)--------|-(0)----*|
|----------|------------|--------*|
|-0--------|-(0)--------|-(0)----*|



Trancrito por Paulo Sérgio
Composição de Joe Satriani
Colaboração e revisão:
  • Paulo Sérgio
13.757 exibições
    • ½ Tom
    • A
    • Bb
    • B
    • C
    • Db
    • D
    • Eb
    • E
    • F
    • F#
    • G
    • Ab
  • Adicionar à lista

    0 comentários

    Ver todos os comentários

    Conseguiu tocar?

    0 Tocaram 1 Ainda não

    Grave um vídeo tocando Friends e nos envie!

    00:00 / 00:00
    Outros vídeos desta música
    Repetir Qualidade Automático
    Outros vídeos desta música
    00:00 / 00:00
    Automático

    Cifra Club Pro

    Aproveite o Cifra Club com benefícios exclusivos e sem anúncios
    Cifra Club Pro
    Aproveite o Cifra Club com benefícios exclusivos e sem anúncios
    OK