Cifra Club

Aprenda

Ice 9

Joe Satriani

Cifra: Principal (violão e guitarra)
tom: B
 A influência de Joe Satriani no moderno Rock intrumental e em todo o universo guitarrístico
pode seguramente ser comparado às influências de Les Paul e de Jimi Hendrix, que sempre inovaram 
em busca de novas sonoridades, inventando técnicas  de execução, processos de gravação e 
timbragem de seus instrumentos. Além de contar c/ senso rítmico e melódico extraordinário,
a técnica de mão esquerda de Satriani é extensa e a maneira como usa a alavanca chega a
extremos, também muito apreciada por dois de seus alunos mais famosos, Steve Vai e kirk Hammet
(Metallica).
 O sinistro e sonoro tema de "Ice9" foi inspirado no livro Cat's  Cradle, de Kurt Vonnegut, no
qual Ice9 é uma substância que cristaliza a água num simples contato.
 Para se aproximar do timbre original, nos trechos com distorção utilize uma guitarra com
humbuckers e Floyd Rose, pedal de distorção, um wah wah e delay para alguns solos, para a 
guitarra limpa compressor e chorus já é o suficiente...
Chega de enrolação e mãos a obra...




Intro               w/Fill 1 (2nd time only)
                                PM.....................
E|---------------||-------------------------------------|
B|---------------||-------------------------------------|
G|---------4--3--||-.-(3)-------------------------------|
D|---------2--4--||-.-(4)-6--6--------------------------|
A|---------------||-------4--4--4--4--4--4--4--4-----4--|
E|---------------||-------------------------------7-----|

      ............|                 2
E--------------------------|----------------||
B--------------------------|----------------||
G--------------------4--3--|------.-//----.-||
D--------------------2--4--|-------//-.---.-||
A-----4--4--4--4--4--------|----------------||
E-(7)----------------------|----------------||


                                                      w/Fill 1
       ^^^ ^^^  ^F      P     ^^^ ^^^ AH^^  ^1/2            ^^^^^^^
E|----------------|---------------------------------|----------------|
B|----------------|------------------------11---11--|-(11)-9---------|
G|--x-----9---11--|-(11)-9------------9----11---11--|-(11)-9---------|
D|----11----------|---------11---11-----------------|---------11--\--|
A|----------------|---------------------------------|----------------|
E|----------------|---------------------------------|----------------|


                                                       w/Fill 1
       ^^^ ^^^  ^F         P     ^^^^^^ ^^^  ^1/2            ^^^^^^^
E|-------------------|-------------------------------|----------------|
B|-------------------|----------------------11---11--|-(11)-9---------|
G|--------9---11--11-|-(11)-9----------9----11---11--|-(11)-9---------|
D|----11-------------|---------11--------------------|---------11--\--|
A|-------------------|-------------------------------|----------------|
E|-------------------|-------------------------------|----------------|


   w/Fill 2 (4 times)
      S.H............^F              S.H..........A.H.^^^^
E|---------------------|--------|----------------------------|
B|---------------------|--------|----------------------------|
G|---------------------|--------|----------------------------|
D|---------2--4--2--4--|--------|---------2--4--2------------|
A|---x--4--------------|--------|---x--4-----------4---(4)-\-|
E|---------------------|--------|----------------------------|

      S.H...........A.H.^1 1/2        S.H...........^^^^     w/Rhy. Fill 1
E|---------------------|--------|----------------------------|---|
B|---------------------|--------|----------------------------|---|
G|---------------------|--------|----------------------------|---|
D|---------2--4--2--4--|--------|---------2--4--2------------|---|
A|---x--4--------------|--------|---x--4-----------4---4--\--|---|
E|---------------------|--------|----------------------------|---|

           ^^^^^^^^^^^^F^^^^^      ^1/4^^^^^^1/4^^^^^^^^^
E|-----------------------------|--------------------------------|
B|--------------12----14-------|--14-------12-------------------|
G|--------13----4-----6--------|--6--------4-----13-------------|
D|--------6--------------------|-----------------6--------------|
A|--------------2-----4--------|--4--------2--------------------|
E|--------4--------------------|-----------------4--------------|
 |
 |  PM........................................................
E|-----------------------------|--------------------------------|
B|-----------------------------|--------------------------------|
G|-----------------------------|-----------------6-----6--------|
D|--------6-----------6--------|-----------4-----6--6--6--------|
A|--------6-----6-----6-----4--|--4-----4--4--4--4--4--4-----7--|
E|--4--4-----4--4--4-----0--2--|--2--0--2-----------------5--5--|

           ^^^^^^^^^^^^F^^^^^                  ^^^^^^^^^
E|--------------12----14-------|--15---------(15)---------------|
B|--------14----5-----7--------|--8----------(8)----------------|
G|--------6--------------------|--------------------------------|
D|--------------2-----4--------|--5----------(5)----------------|
A|--------4--------------------|--------------------------------|
E|-----------------------------|--------------------------------|
 |
 |  PM........................................................
E|-----------------------------|--------------------------------|
B|-----------------------------|--------------------------------|
G|-----------------------------|-----------8-----8-----8--------|
D|--------7-----7-----7-----8--|-----8-----8-----8-----8--------|
A|-----7--7-----7-----7-----6--|--6-----6-----6-----6-----0--7--|
E|--x--5--5--5-----5--5--0-----|-----------------------------5--|

           ^^^^^^^^^^^^F^^^^^      ^^^^     ^1/4  ^^^^^^^^^
E|--------------12----14-------|--14-------12-------------------|
B|--------14----5-----7--------|--7--------5-----14-------------|
G|--------6--------------------|-----------------6--------------|
D|----14--------2-----4--------|--4--------2--------------------|
A|------\-4--------------------|-----------------4--------------|
E|-----------------------------|--------------------------------|
 |
 |  PM........................................................
E|-----------------------------|--------------------------------|
B|-----------------------------|--------------------------------|
G|-----------------------------|-----------6-----6-----6--------|
D|--------7-----7-----7--------|-----------6-----6-----6-----2--|
A|-7-7-7--7-----7-----7-----4--|--------4-----4-----4--------2--|
E|-5---5--5--5-----5--5--0--2--|--2--0--2-----------------0-----|

           ^^^^^^^^^^^^^^^^^       F^^^^^^^^^^^^^^^^
E|--------------------16-------|--16------(16)--(16)---------|
B|--------------17----9--------|--11------(11)--(11)-\-------|
G|--------16----9-----1--------|--3-------(3)---(3)--\-------|
D|--------9-----2--------------|---------------------\-------|
A|--------2--------------------|-----------------------------|
E|-----------------------------|-----------------------------|
 |
 |  PM............................................
E|-----------------------------|-----------------------------|
B|-----------------------------|-----------------------------|
G|-----------------------------|-----------------------4--3--|
D|--------2-----2-----2--------|-----6-----6-----6-----2--4--|
A|-2-2-2--2-----2-----2-----6--|--------6--6-----6-----------|
E|-0-0-0-----0-----0-----0--4--|--4--0--4-----4--4-----------|


                                                      w/Rhy. Fill 2
     ^^^^^^^^^^^F   ^^^^^^^^^P ^^^^^^^^^^^^^^^F             ^^^^^^^^
E|-------12---14---14--|-(14)-12---------12--14-14--|-(14)-12------------||
B|--14-----------------|---------14--14-------------|---------14--(14)---||
G|-------9----11---11--|-(11)-9----------9---11-11--|-(11)-9-----------\-||
D|--11---2----4----4---|-(4)--2--11--11--2---4--4---|-(4)--2--11--(11)---||
A|--4------------------|---------4---4--------------|---------4---(4)--\-||
E|---------------------|----------------------------|------------------\-||

SOLO I
         ^^^^       P  H  H       P  P  H  P  H
E|------------------------------------------------|
B|--11/14---(14)-14--10-11-14-(14)-11-10-14-10-11-|
G|------------------------------------------------|
D|------------------------------------------------|
A|------------------------------------------------|
E|------------------------------------------------|

  H  P  P  H  P  H  H  P  P     P  H  H  P  H  H
E|-------------------------------------------------
B|-14-11-10-14-10-11-14-11-10----------------------
G|----------------------------13-10-11-13-10-11-13-
D|-------------------------------------------------
A|-------------------------------------------------
E|-------------------------------------------------

 P  H  H  P  P  H     H  P  P        P    rake  
E----------------------------------------------|
B-10-11-13-11-10-11/13-14-13-11\10----------13-|
G----------------------------------11-10--x----|
D----------------------------------------------|
A----------------------------------------------|
E----------------------------------------------|

     H  H  P  P  H  P     P  P  H  H  H     H  H  P  P  H  H
E|----------------------------------------13-14-16-14-13-14-16-
B|-10-11-13-11-10-11-10/14-13-11-13-14-16----------------------
G|-------------------------------------------------------------
D|-------------------------------------------------------------
A|-------------------------------------------------------------
E|-------------------------------------------------------------

  T P  P  P  H  H  P  P     H  H  P  H  H  P  P     P
E-18-16-14-13-14-16-14-13\11-13-14-11-13-14-13-11-------|
B-------------------------------------------------14-13-|
G-------------------------------------------------------|
D-------------------------------------------------------|
A-------------------------------------------------------|
E-------------------------------------------------------|

  P  P     H  P  H     H  P     P H  P     P H  H  P  P
E|-------------------11-14-11----------------------------
B|-11-10/11-14-13-14----------14-9-11-14\13-9-11-13-11-9-
G|-------------------------------------------------------
D|-------------------------------------------------------
A|-------------------------------------------------------
E|-------------------------------------------------------

    P  H  P  P    H  H              H
E---------------------------------------|
B---------------------------------------|
G-13-11-13-11-10\8-10-11----8-X/8-10-11-|
D------------------------10-------------|
A---------------------------------------|
E---------------------------------------|

  P  P H  P H  H  P  P H  P H  H  P  P
E|--------------------------------------
B|--------------------------------------
G|-10-8-12-8-11-13-11-8-11-8-10-11-10-8-
D|--------------------------------------
A|--------------------------------------
E|--------------------------------------

 H  P  P   H H  P P     H H P   H H P P 
E----------------------------------------|
B----------------------------------------|
G----------------------------------------|
D-11-10-8\6-8-10-8-6\4-4-6-8-4\3-4-6-4-3-|
A----------------------------------------|
E----------------------------------------|

    P H H   H H P P   P H H    AH^F ^F
E|------------------------------------------------|
B|------------------------------------------------|
G|---------3-5-6-5-3------------------------------|
D|-6-3-4-6-----------6-3-4-6----------------------|
A|---------------------------6-4--4--(4)/12\3/11\-|
E|------------------------------------------------|

    /  ^F         /       \               pick slide  
E|-------------------|--------------------X-\-\---||
B|--X-19-------------|--------------------X-\-\---||
G|--X----------------|--------------------X-\-\---||
D|--X----------------|--------------------X-\-\---||
A|-------------------|--------------------X-\-\---||
E|----------------2--|--(2)---------------X-\-\---||

SOLO II
          P         P         P           P         P         P
E|-7-7---------7---------7-----------7---------7---------7----------|
B|------10-7------10-7------10-7--10----10-7------10-7------10-7----|
G|-----------9---------9---------------------9---------9---------9--|
D|------------------------------------------------------------------|
A|------------------------------------------------------------------|
E|------------------------------------------------------------------|

      AH^F  P ^1/2   P  AH^1 1/2
E|-------------------------------------------|
B|-7-----------------------------------------|
G|----9--(9)-7-------------------------------|
D|--------------7----------------------------|
A|-----------------9--7--9--(9)-------X-\-\--|
E|------------------------------------X--\-\-|

   \2/\ \2/^1 1/2H^^   ^1 1/2^^^^^   \2/^1 1/2^^^
E|------------------------|-------------------------------|
B|--------19-21---19--21--|--21----19-21--(21)---X-\--10--|
G|--X---20------------21--|-------X---21---------X-\------|
D|--X--X------------------|------X---------------X-\------|
A|--X---------------------|-------------------------------|
E|--X---------------------|-------------------------------|

    ^F      P    ^^    P    P    P  H  H  P P           H H P P
E|------7----------7------------------------------------------------|
B|-(10)---10-7-10----10-7------10--7--9-10-9--7----9----------------|
G|------------------------10-0------------------10---7\6-7-9-7-6\4--|
D|------------------------------------------------------------------|
A|------------------------------------------------------------------|
E|------------------------------------------------------------------|

     H P P   P P H     P   P    ^1/2^^^^
E|-------------------------------------------------|
B|-------------------------------------------------|
G|--6-7-6-4----------------------------------------|
D|----------7-6-4-6-(6)-4-7-6-(6)-(6)----X-\--\----|
A|---------------------------------------X--\--\---|
E|---------------------------------------X---\--\--|

       /1     /2    \             /1 1/2 /\/\/\/\
E|--/19-(19)-(19)------|--(19)-(19)-------------------||
B|---------------------|------------------------------||
G|---------------------|------------------------------||
D|---------------------|---------------------------X--||
A|---------------------|---------------------------X--||
E|---------------------|---------------------------X--||

SOLO III (Backwards gtr.)
    \Harm./    /1\        /\/\/\/\/\          /1\    T/2\/  /\/
E|----------------|---------------------|---------------------|
B|----------------|---------------------|---------------------|
G|--4---------2---|--(2)----------------|--2.4-------3----0---|
D|----------------|------------------X--|---------------------|
A|----------------|-----------------X---|---------------------|
E|----------------|--------0-------7----|---------------------|

   \Harm./\                                     \/1 1/2   /      P
E|---------|------------------|---------------|---------|------------||
B|---------|--x\--------------|---------------|---------|------------||
G|--2.4----|------------------|---------------|------6--|-(6)-(6)-4--||
D|---------|------------------|---------------|------6--|-(6)-(6)-4--||
A|---------|-----12\7/14-21\4-/-16--21\16\4---|---------|------------||
E|---------|------------------|---------------|--0------|------------||

Coda
  w/Rhy. Fill 3
     ^F   ^^^^^            PM              ^^^^^
E|--16---(16)---||-----|---------------------|------------|
B|--11---(11)---||-----|---------------------|------------|
G|--3----(3)----||-----|---------------------|------------|
D|--------------||-----|-----11-9-11----9-11-|-(11)-9-X---|
A|--------------||-----|--11---------11------|---------X--|
E|--------------||-----|---------------------|------------|

          ^1/2  ^^^   ^^^^^        ^F  F               ^F    P         ^^^^^
E|----------------------------|--/12-|-12-9-12-9---------------------------------|
B|----------------------------|--/12-|-----------9-12----------------------------|
G|-------9--------------------|------|----------------11-(11)-9------------------|
D|----11-----X----11----------|------|--------------------------11-11-(11)-(11)\-|
A|-11------10--10----10-(10)\-|------|-------------------------------------------|
E|----------------------------|------|-------------------------------------------|

      ^F  ^F^^^^^^       ^1 1/2                     ^^^^^^^^^     ^^^^^^^^ 
E|---14-14-(14)-(14)\-|-21--19-------19-|--------------------------------------|
B|--X-----------------|--------21-20----|-21-20-19-17----------19----17----17\-|
G|-X------------------|-----------------|-------------18-18-18----18----18-18\-|
D|--------------------|-----------------|--------------------------------------|
A|--------------------|-----------------|--------------------------------------|
E|--------------------|-----------------|--------------------------------------|

      ^F^^   P   ^F     P   ^1/2        P     P
E|-X--9--9----------9---------|-----------------------------|
B|-X-12----12-9-12----12-9----|-----------------------------|
G|-------------------------11-|-(11)-(11)-9-----------------|
D|----------------------------|-------------11-9------------|
A|----------------------------|------------------11-10---X\-|
E|----------------------------|-----------------------------|

   ^F       ^^ ^F                        ^^^ P      ^F   P   ^^ PM
E|---------------------------------|-------------------------------|
B|---------------------------------|-------------------------------|
G|-9-11-------9--------------------|-------------------------------|
D|------11-11---11-9----9----------|-------------------------------|
A|-------------------11---11\10-11-|-10-9--10-9\7-9-9-(9)-7----7-7-|
E|---------------------------------|------------------------9------|

        H      ^F           P     ^F   ^^^^     \1 1/2
E|-----------------------------|-----------------------|
B|-----------------------------|-----------------------|
G|-----------------------------|-----------------------|
D|-----------------------------|-----------------------|
A|-X-7-----7-7-9-7-7-X-9-7-9-7-|-9---(9)---(9)\------X-|
E|-----7-9---------------------|----------------0---X--|

Begin Fade
                           ^^^       ^1/4^^^^                ^^^
E|----------------------|------------------------|---------------------------|
B|----------------------|------------------------|---------------------------|
G|----------------------|-----------9------------|----------9-----11-9-11-12-|
D|--------11-9-11----11-|-9--11-9-9---11--11--X\-|----11-11----11------------|
A|--11-11---------11----|------------------------|-11------------------------|
E|-/--------------------|------------------------|---------------------------|

     P  P          P  P   ^FP  ^1/2^^^      ^F    P   ^F^^ H P   ^F      P H  P
E|-------------------------------------|------9----------------------9-----------|
B|-------------------------------------|-X/12---12-9-12--9-12-9----9---12-9-12-9-|
G|-12-11-9-11-12-12-11-9-11-9-11---X-X-|------------------------11---------------|
D|-------------------------------------|-----------------------------------------|
A|-------------------------------------|-----------------------------------------|
E|-------------------------------------|-----------------------------------------|

    ^1/2         H P  H    ^F     P    P    ^1/2 P
E|----------------------------------------------------|
B|------------12-14-12-14-----------------------------|
G|-11-(11)/13-------------11--9-----------------------|
D|------------------------------11-9------------------|
A|-----------------------------------11-9\7-9-(9)-7---|
E|--------------------------------------------------9-|

             ^1 1/2^^   ^F     ^^^^^^
E|----------21--21--|----------------------||
B|------------------|--19----(19)----------||
G|------------------|----------------------||
D|------------------|---------------X-\-\--||
A|------------------|---------------X-\-\--||
E|-/19\-X\----------|----------------------||

FILL 1
E|----0--0--|--(0)-------|
B|----7--7--|--(7)-------|
G|----9--9--|--(9)-------|
D|----------|------------|
A|----------|------------|
E|----------|------------|

FILL 2
E|----9---9---9---9---|----0--0---|
B|----12--12--9---11--|----7--7---|
G|----9---9---9---9---|----9--9---|
D|----11--11--11--11--|-----------|
A|--------------------|-----------|
E|--------------------|-----------|


RHY. FILL 1
     PM......           ^1/4
E|-----------------------------|
B|-----------------------------|
G|------------6-4--------------|
D|----------------6-5-4--------|
A|------4-4-4-----------7-4----|
E|--(7)---------------------7--|

RHY. FILL 2
E|-------------------|
B|-------------------|
G|----(3)------------|
D|----(4)-6--6--6-\--|
A|--------4--4--4-\--|
E|-------------------|


RHY. FILL 3
     PM    PM          ^1/4
E|----------------------------|
B|----------------------------|
G|-----------6-4--------------|
D|------6--------6-5-4--------|
A|------6--6-----------7-4----|
E|--X-4----4---------------7--|
Composição de Joe Satriani
8.710 exibições
    • ½ Tom
    • A
    • Bb
    • B
    • C
    • Db
    • D
    • Eb
    • E
    • F
    • F#
    • G
    • Ab
  • Adicionar à lista

    0 comentários

    Ver todos os comentários

    Conseguiu tocar?

    1 Tocaram 0 Ainda não

    Grave um vídeo tocando Ice 9 e nos envie!

    00:00 / 00:00
    Outros vídeos desta música
    Repetir Qualidade Automático
    Outros vídeos desta música
    00:00 / 00:00
    Automático

    Cifra Club Pro

    Aproveite o Cifra Club com benefícios exclusivos e sem anúncios
    Cifra Club Pro
    Aproveite o Cifra Club com benefícios exclusivos e sem anúncios
    OK