Cifra Club

Aprenda

Anne

John Frusciante

Cifra: Principal (violão e guitarra)
tom: E
E|-----------2---2-2--|
B|--2--0-----2---3-3--|
G|--2--2-----2---2-2--|
D|--2--2-0-4-----0----|
A|--0-----------------|
E|--------------------|

A               E
Anne you can't hide
    F#m  F#m    D    D
You know we'll find you
       A             E        F#m  F#m  D   D
It's a matter where pride flies out the window

E|------------------------|
B|-11--8-8-7--------------|
G|-12--7-7-7--------------|
D|------------------------|
A|-10--7-6-5--------------|
E|------------------------|

Dm      Gm/Bb    Bb    Bb   A   A
I never got the weight off the ground
Dm      Gm/Bb    Bb      Bb   A     A
I just forgot what's up and what's down

E|------------------------|
B|--11--8----8-8----7--7--|
G|--12--7----7-7----7--7--|
D|------------------------|
A|--10--7-----------------|
E|-----------6-6----5--5--|

Gm       Em7    Gm/Bb Gm/Bb  D/A  D/A
How many get the way    I    feel now
Gm           Em7
There's no regret
       Gm/Bb Gm/Bb  D/A  D/A
There's just the   sense that

        Gm Dsus4/F Cm/A A11
E|---------------------------|
B|--3--3-------4-----3-------|
G|--3--0-------5-----5-------|
D|---------------------------|
A|---------------------------|
E|--3--1-------5-----5-------|

Gm      Dsus4/F  Cm/A  A11
Nothing is coming my way
       Gm         Dsus4/F    Cm/A Am11
There's so much that happened today

         D
E|--------------------------3---------------------------------------|
B|-----3--------3--------3--4-----3-------3-------------------------|
G|--3-----3--2-----2--0--3-----3-----3--2---2--0--2--3--2-----------|
D|--------------------------------------------------------3--1---4--|
A|---------------------------------------------------------------5--|
E|------------------------------------------------------------------|

The Gods of the city have called my name
It means more to them than it means to me somehow
I left my body
I left my fate
But it is so hard to keep away now

                     D#
Nothing is final because
   F            C7  Gm
it seems all the while

There wasn't anything for me
D#        F      C7  Gm
I always faked my smile
                                                 F
There's so many careless angels responsible for me
                Gm
They give me disease
      C7        D#         F           Gm
They give me a pain in my neck to feed off me
       D#          F              C7
Saying pay us the cost and we'll be gone
     D#           F          Gm           F
Now they shut my eyes and i can't see... now

[Solo] D#  F  Gm  D#  F
       C7  D#  F  Gm  F

D#            F           Gm
These are the times I was scared of
D#            F         C7
These are the fates I pushed out of the way
D#            F           Gm            F
Now they come back here and haunt me... It's plain to see
       D#         F         Gm
Who the winner and loser will be

[Solo] D#  F  Gm  D#  F
       C7  D#  F  Gm  F
Composição de John Frusciante
Colaboração e revisão:
  • Calel Duarte
  • Rafael Guimarães
  • Aline Pinheiro
27.594 exibições
    • ½ Tom
    • A
    • Bb
    • B
    • C
    • Db
    • D
    • Eb
    • E
    • F
    • F#
    • G
    • Ab
  • Adicionar à lista

    0 comentários

    Ver todos os comentários
    00:00 / 00:00
    Outros vídeos desta música
    Repetir Qualidade Automático
    Outros vídeos desta música
    00:00 / 00:00
    Automático

    Cifra Club Pro

    Aproveite o Cifra Club com benefícios exclusivos e sem anúncios
    Cifra Club Pro
    Aproveite o Cifra Club com benefícios exclusivos e sem anúncios
    OK