Cifra Club

Aprenda

Before the Beginning

John Frusciante

Cifra: Principal (violão e guitarra)
tom: E
Intro: Em  D/F#  G  C/E

E|-7-----------------
B|-8--7--12--5-------
G|-9--7--12--5-------
D|-9--7--12--5-------
A|-7--9--10--7-------
E|-0-----XX----------

(1:37 - 1:56)

E|-----------------------------------------------------------------------------------------------
B|-15b17(hold+let feedback)15b17r15~--12-15-15-12~--15----------12b13--12b13r12~-----------------
G|-----------------------------------------------------------------------------------------------
D|-------------------------------------------------------12--14----------------------------------
A|-----------------------------------------------------------------------------------------------
E|-----------------------------------------------------------------------------------------------

(1:59 - 2:13)
                                            (Hold)
E|------------------------------------------------------------------------------------------------
B|-17b19r17-15-15-----------15b17-----------12b13--15--12b13r12~----------------------------------
G|-------------------16---------------------------------------------------------------------------
D|----------------------------------12-14~--------------------------------------------------------
A|------------------------------------------------------------------------------------------------
E|------------------------------------------------------------------------------------------------

(2:14 - 2:39)
                     (rocked w/wah)
E|--------------17b19------------18b20--19b20r19--------17b19r17-15-17-17-15~--17-------20b22-20-19-
B|-17b19r17-15----------15--17~---------------------------------------------------15-17-------------
G|--------------------------------------------------------------------------------------------------
D|--------------------------------------------------------------------------------------------------
A|--------------------------------------------------------------------------------------------------
E|--------------------------------------------------------------------------------------------------

(2:40)
                                              (Feedback w/Whammy Bar)   3:10(w/Whammy Bar)
E|--------------------------------------------------------------------------------------------------
B|--------------------------------------------------------------------------------------------------
G|--------------------------------------------------------------------------------------------------
D|-------------12h14--12~---12-11-10----------------------------------------------------------------
A|------------------------------------10s14s---10~--------------------------------------------------
E|-19S-0---------------------------------------------------------------x------0(dive Bomb)----------

        (w/Vibrato)
E|-------------------------------------------------------------------------------------------
B|--15b17-x6)----15b17r15-12--15-15-12~--15----------------12b13----12b13r12-----------------
G|---------------------------------------------------------------------------12---------12~--
D|---------------------------------------------12-14-14--------------------------------------
A|-------------------------------------------------------------------------------------------
E|-------------------------------------------------------------------------------------------

E|-------------------------------------------------------------------------------------------------------
B|------------------------------------------12b13---------------------------------3-2-1--s5--s12---------
G|--11------s14--s12~----14b16r14---------------------------------------2b4r2p0--------------------------
D|---------------------------------12-14-14--------------------------------------------------------------
A|-------------------------------------------------------------------------------------------------------
E|-------------------------------------------------------12so-0------------------------------------------
                                                                                                     E|--------------------------------------------------------------------------------------------------------------------------------
B|-12h15h17-17-12h15h17-17-12h15h17-17-12h15h17-17-12h15h17-17---17b19r17-15-15b17r15--12-----15-14-13~--12b13r12---12b13---------
G|---------------------------------------------------------------------------------------------------------------12--------12-----
D|--------------------------------------------------------------------------------------------------------------------------------
A|--------------------------------------------------------------------------------------------------------------------------------
E|--------------------------------------------------------------------------------------------------------------------------------

E|------------------------------------------------------------------------------------------------------------------------------
B|-----------------------------12b13--------------------------------------------------------------------------------------------
G|--11--s14--s12~-----------------------------------------11---12s14-12~---14---------------------------------12----------------
D|--------------------12-14--------------12h14~--------14-----------------------12-14~-14-12h14-12h14-14-14--------14~----------
A|------------------------------------------------------------------------------------------------------------------------------
E|------------------------------------------------------------------------------------------------------------------------------

E|---17b19r17-15-17-17-15~--17--------------------------------------------------------------------------
B|-----------------------------15-17~---15b17-15-12-15--12~---------------------------------------------
G|----------------------------------------------------------------------14b16r14-12~--14-------------11-
D|---------------------------------------------------------------------------------------12-14~---------
A|------------------------------------------------------------------------------------------------------
E|------------------------------------------------------------------------------------------------------

E|----------------------------------------------------------------------------------------------------------------------------
B|----------------------------------12b13r12~-----------------------Fade In-17b19r17-15-17------15-14-13--12b13r12------------
G|-12s-14-s12----14b16r14------------------------------------------------------------------16~--------------------------------
D|----------------------------12-14-------------------------------------------------------------------------------------------
A|----------------------------------------------------------------------------------------------------------------------------
E|------------------------------------------------------------------------------------------------------------------------0---
--

E|-------------------------------------------------------17b19--17--17b19r17-15~-----15-17----------19b20-22-19b20r19~-19--
B|--------------------------------------------17-15-17~------------------------------------15-17---------------------------
G|-0--2--0----------------4b5r4-4--s9~-s16---------------------------------------------------------------------------------
D|-----------------0-2-----------------------------------------------------------------------------------------------------
A|-------------------------------------------------------------------------------------------------------------------------
E|-------------------------------------------------------------------------------------------------------------------------

E|-19~-19~-19~-19~-19~-19~---22b24-22b24r22--22-22--22-21-20--19b20r19------------------------------------------------------------
B|----------------------------------------------------------------------15-17-17~--15-17-17~-15-17-17~-15-17-17~-15-17-17~-15-17-17~
G|-----------------------------------------------------------------------------------------------------------------------
D|-----------------------------------------------------------------------------------------------------------------------
A|-----------------------------------------------------------------------------------------------------------------------
E|-----------------------------------------------------------------------------------------------------------------------

E|------------------------------------------------------------------------------------------------------------------------------
B|-15-17-17~-15-17-17~-17-17-17-17-17-15~-15~----------------15b17~r15----------------------------------------------------------
G|--------------------------------------------14b16r14--12----------------16-16-16p14p12-----16-16-16p14p12----16-16-16p14p12---
D|---------------------------------------------------------------------------------------14-----------------14----------------14
A|------------------------------------------------------------------------------------------------------------------------------
E|------------------------------------------------------------------------------------------------------------------------------

E|-----------------------------------------------------------------------------------------------------------------------
B|--------------------------------------------------------------------------------------------15b17r15-12-15-12~---------
G|-16-16-16p14p12----16-16-16p14p12----16-16-16p14p12----16-16-16p14p12----16-16-16p14p12--------------------------------
D|----------------14----------------14----------------14----------------14----------------14-----------------------------
A|-----------------------------------------------------------------------------------------------------------------------
E|-----------------------------------------------------------------------------------------------------------------------

E|-----------------------------------------------------------------------------------------------------------------------
B|--15---------15b17r15-12-15-12~-------------------------17b19--15b17r15b17r17-15~-----15-14-13~------------------------
G|------------------------------------------------------------------------------------------------------------11-11s12--14-14b16r14-12~-
D|-----12-14-----------------------------------------------------------------------------------------14~-----------------
A|-----------------------------------------------------------------------------------------------------------------------
E|-----------------------------------------------------------------------------------------------------------------------

E|-----------------------------------------------------------------------------------------------------------------------
B|---------------12b13r12---------------------------------------------15-14-13~----17-15-17~-17-15-17~-17-15-17~-17-15-17~-17-15-17~
G|--14----------------------------------11s12---14-----14b16r14-12------------------------------------------------------
D|------12-14---------------12h14----------------------------------------------------------------------------------------
A|-----------------------------------------------------------------------------------------------------------------------
E|-----------------------------------------------------------------------------------------------------------------------

E|------------------------------------15--17b19r17-15-15b17-------------19b20-----------------------------------------------
B|-17-15-17~-17-15-17~-17-15-17~-17~--------------------------15-15h17------------------------------------------------------
G|--------------------------------------------------------------------------------------------------------------------------
D|-------------------------------------------------------------------------------------------------14-----12h14-------------
A|--------------------------------------------------------------------------------------------------------------------------
E|-------------------------------------------------------------------Whammy Bar Dive-0--------------------------------------

E|-------------------------------------------------------------------------------------------------------------------------
B|-------------------------------------------------------------------------------------------------------------------------
G|-----------------------------------------14b16p14p12---------------------------------------------------------------------
D|--14----------------------------------------------------14---------------------------------------------------------------
A|-------------------------------------------------------------------------------------------------------------------------
E|-------------------------------------------------------------------------------------------------------------------------
Composição de John Frusciante
Colaboração e revisão:
  • Leonardo Rodrigues
  • Paulo Santos
9.706 exibições
    • ½ Tom
    • A
    • Bb
    • B
    • C
    • Db
    • D
    • Eb
    • E
    • F
    • F#
    • G
    • Ab
  • Adicionar à lista

    0 comentários

    Ver todos os comentários
    00:00 / 00:00
    Outros vídeos desta música
    Repetir Qualidade Automático
    Outros vídeos desta música
    00:00 / 00:00
    Automático

    Cifra Club Pro

    Aproveite o Cifra Club com benefícios exclusivos e sem anúncios
    Cifra Club Pro
    Aproveite o Cifra Club com benefícios exclusivos e sem anúncios
    OK