Cifra Club

Aprenda

Carvel

John Frusciante

Cifra: Principal (violão e guitarra)
tom: D
[Intro] Bm  F#m  G  Bm  F#m  G
        Bm  F#m  G  Bm  F#m  G
               
       Bm      F#m        G      G
When I try I force it out
       Bm         F#m     G      G
Never looking in only out

  D        A         F#m      G     A
Now is the time for millions to lose
  D         A        F#m      G   A
Never the same since I lost you

  Bm       F#m         G    G
Running me out of town
  Bm      F#m         G    G
Wishing the best around 

  D        A     F#m   G   A
Would only get off my back
  D       A             F#m       G
Heaven receives you and throws you back

( G )

         A                G
Sending a dummy to my God    
 A                F#m G
Sending a dummy to my God
         A                G
Sending a dummy to my God    
 A                F#m G
Sending a dummy to my God

( Bm  F#m  G  Bm  F#m  G )
( Bm  F#m  G  Bm  F#m  G )

 D         A      F#m   G   A
Driving to eat a carvel cake

 D             A        F#m      G         F#m
Somewhere you know isn't where you think
F#
Have you gone away 

( Bm  D  A  G )
( Bm  D  A  G )

[Solo 1]

E|--------------------------------------------------------------------|
B|-------------------------10-12------------------------------------|
G|------9-11------9-11-9-----------------9-11------9-11-9-7--6-7------|
D|-9-12------9-12-------12----------9-12------9-12-----------7-9----|
A|--------------------------------------------------------------------|
E|--------------------------------------------------------------------|

   Bm            D              A       G
Have you gone, have you gone away already           
   Bm         D          A          G
Come back, come back, come back, come back

 Bm            D              A       G    Bm   A
Have you gone, have you gone away already
 F#m                    G
All the good times are on their way

( Bm  D  A  G )
( Bm  D  A  G )

[Solo 2]

E|-------------------------------------------------------------------|
B|-------------------------10-12-------------------------------------|
G|------9-11------9-11-9----------------9-11----9-11-9-7-------|
D|-9-12------9-12-------12--------9-12------9-12----------9^10^9-9|
A|-------------------------------------------------------------------|
E|-------------------------------------------------------------------|

        Bm         D          A       G             
Up and down that's how energy stays alive   

( Bm  D  A  G )

   Bm         D          A       G              
Up and down that's how energy stays alive   
Bm       A       F#m              G
     And I wouldn't have it any other way

( D  A  Bm  G )
( D  A  Bm  G )
( D  A  Bm  G )
( D  A  D )
Composição de John Frusciante
38.543 exibições
    • ½ Tom
    • A
    • Bb
    • B
    • C
    • Db
    • D
    • Eb
    • E
    • F
    • F#
    • G
    • Ab
  • Adicionar à lista

    0 comentários

    Ver todos os comentários
    00:00 / 00:00
    Outros vídeos desta música
    Repetir Qualidade Automático
    Outros vídeos desta música
    00:00 / 00:00
    Automático

    Cifra Club Pro

    Aproveite o Cifra Club com benefícios exclusivos e sem anúncios
    Cifra Club Pro
    Aproveite o Cifra Club com benefícios exclusivos e sem anúncios
    OK