Cifra Club

Aprenda

Central

John Frusciante

Cifra: Principal (violão e guitarra)
tom: C
Verso 1:
     Am           C
I'm central to nowhere
 F              Dm
Thinking of sweeping it clean
         Am                  C
When we choose to go,We're losing more
      F           Dm
than just our surroundings

Am                    C
I've gone around the sides of this
F               Dm
Universe as it stands
Am                     C
Outside the limits of all existence
F                Dm
Where light never ends

Refrão:
F             C             Dm
we should be greatful to the gods
F               C            Dm  Am F C Dm
Whoever they're real to they are
F          C                Dm
I value my placement as in Hell
 F              C           Dm  Am F C Dm
Remember that moment that I fell

(Verso 2)

Am                   C
Anything that could one day be
        F              Dm
Is as real as what I'm saying
    Am                           C
If something is nothing it must not be something
    F           Dm
In any possible way

Am                C
Lose yourself in the far off worlds
          F                Dm
That are right under your feet
          Am
Switch below with above
      C         F       Dm
All the way up into infinity

Refrão:
F              C             Dm
We should be thankful who we are
F           C                Dm Am F C Dm
Whether we know ourselves or not

F            C      Dm
Walking alongside myself
F            C               Dm   Am F C Dm
Neither of us listens very well            now...

( Am  G  F )  (3x)

( Dm )

Am                             G   F
I'm dreading the time that is not near
Am                       G       F
As a man on the cross I have no fear
Am                     G       F
I can believe these words I'm saying
Dm
you've got to feel your lines

you've got to feel your lines
       (Pulsates towards end of sustain)      4:19 -
E|-----------------------------------------------------------------12-------------12---------------------17-------
B|-5~-(long distorted suStain)-----------------s17--15--13--12--10----15-13 12 10----15-13--12---15--18--20b22----
G|----------------------------------------------------------------------------------------------------------------
D|----------------------------------------------------------------------------------------------------------------
A|----------------------------------------------------------------------------------------------------------------
E|----------------------------------------------------------------------------------------------------------------

E|----------------------------------------------15-------15-----------------------------------------------------15b17-
B|----------------------------------------------15b17----15b17r15p13-------------13-15-15b17-13-13h15~----------------
G|-----12s14-12-14b16r14~---12h14-14~~-------------------------------14~----s14---------------------------------------
D|--------------------------------------------------------------------------------------------------------------------
A|--------------------------------------------------------------------------------------------------------------------
E|--------------------------------------------------------------------------------------------------------------------

E|--------------------------------------------------------------------------------------------------------------------------
B|-----------------------------------------------------------------------------------------------------------------------------
G|-14b16---14b16r14-14~------14-14-14h16p14p12-h14--14-14--14h16p14p12-h14-----------------------12h14----14-14-14h16p14p12-h14-
D|---------------------------------------------------------------------------s14--12------12-14-----------------------------
A|------------------------------------------------------------------------------------15-----------------------------
E|-----------------------------------------------------------------------------------------------------------------

E|---------------15----15----15----15----15-----15------15----15------15h17~-----19b20r19--17~---------------------------
B|-s17-17-17--17-----17----17----17----17----17-----17-----17-----17----------------------------------------------12-----
G|-------------------------------------------------------------------------------------------------------------------14~--
D|-------------------------------------------------------------------------------------------------14p12s10-12s14--------
A|-----------------------------------------------------------------------------------------------------------------------
E|-----------------------------------------------------------------------------------------------------------------------

E|-----------------------------------------------------------------------------------------------------15---------------15------15-15h17~~--
B|-----------------------------------------------------------------------------------------------15b17----17r15--15b17------s17-------------
G|---------------------------------------------------------------12---------------------12h14-14~-------------------------------------------
D|-14s12-10----10--12p10-12p10-12p10-----------------------12s14----14s12-10---12s14--------------------------------------------------------
A|----------12-----------------------12-----------------------------------------------------------------------------------------------------
E|------------------------------------------------------------------------------------------------------------------------------------------

E|--15----------------------15------------------------15---15----15---15h17~--19b20r19-17--20b22-20b22-17~--------------
B|-----15b17r15p13---15b17-----17r15---------------17---17----17---17----------------------------------------------------
G|-----------------------------------------------------------------------------------------------------------------------
D|-----------------------------------------------------------------------------------------------------------------------
A|-----------------------------------------------------------------------------------------------------------------------
E|-----------------------------------------------------------------------------------------------------------------------

E|--17-17-17h20p17-17~-------------------------15----------------------15h17~-19b20r19-17~15-19-19b20r19-17----15-------12-----15-------------------------------
B|---------------------------------------15b17---17r15p13-13h15~-15-15---------------------------------------15b17-------------15---------------------------------
G|-----------------------------------------------------------------------------------------------------------------------------14b16r14---14-14-14h16p14p12-h14--14-14--14h16p14p12-h14-
D|-------------------------------------------------------------------------------------------------------------------------------------------------------------
A|-----------------------------------------------------------------------------------------------------------------------------------------------------------
E|-----------------------------------------------------------------------------------------------------------------------------------------------------------

E|----------------------------------------------------------------------15-----------------------------------------------------------------------------------
B|---------------------------------15b17----15b17----15b16r15p13--------15b17---------13---------------------------------------------------------------------
G|--14-14--14h16p14p12-h14---------------------------------------14----------------------14~-----------------------------------------------------------------
D|-----------------------------------------------------------------------------------------------------------------------------------------------------------
A|-----------------------------------------------------------------------------------------------------------------------------------------------------------
E|-----------------------------------------------------------------------------------------------------------------------------------------------------------
Composição de John Frusciante
Colaboração e revisão:
  • Leonardo Rodrigues
  • Hamilton Neto
14.478 exibições
    • ½ Tom
    • A
    • Bb
    • B
    • C
    • Db
    • D
    • Eb
    • E
    • F
    • F#
    • G
    • Ab
  • Adicionar à lista

    0 comentários

    Ver todos os comentários
    00:00 / 00:00
    Outros vídeos desta música
    Repetir Qualidade Automático
    Outros vídeos desta música
    00:00 / 00:00
    Automático

    Cifra Club Pro

    Aproveite o Cifra Club com benefícios exclusivos e sem anúncios
    Cifra Club Pro
    Aproveite o Cifra Club com benefícios exclusivos e sem anúncios
    OK