Cifra Club

#9 Dream

John Lennon

Cifra: Principal (violão e guitarra)
tom: C
TAB:

I e|8----7--8--3----0--1--0---1----1--5--3-
N B|------------------------3--------------
T G|---------------------------------------
R D|---------------------------------------
O A|---------------------------------------
. E|---------------------------------------

e|--------------------------------------
B|1--0--0--1----------------------------
G|-----------0---0------------0---------
D|-------------2---2--0--3--3---2--0--3-
A|--------------------------------------
E|--------------------------------------

e|-------------------------------0--3--0---1-
B|--0--1--0--1---------------------------3---
G|2------------0--0----0---------------------
D|-------------------2---2--0--3-------------
A|-------------------------------------------
E|-------------------------------------------

e|--------------------------------
B|0--0--0--1--3---0--0--0--1--3---
G|--------------0---------------0-
D|--------------------------------
A|--------------------------------
E|--------------------------------

e|---------------0--5------------------------------------------------------------
B|0--0--1--3---0------0--0--0--0--0--2--2--0--0--0--0--2--2--0--0--0--0--0--2--2-
G|-------------------------------------------------------------------------------
D|-----------4-------------------------------------------------------------------
A|-------------------------------------------------------------------------------
E|-------------------------------------------------------------------------------

R e|1--3--5--5--3--1--3--1--3----1--3--5--5--3--1--3--1--3----1--3--5--5--3--1--3--1--3-
E B|------------------------------------------------------------------------------------
F G|------------------------------------------------------------------------------------
R D|------------------------------------------------------------------------------------
à A|------------------------------------------------------------------------------------
O E|------------------------------------------------------------------------------------

e|-----------------------------------------
B|1--0--0--1-------------------------------
G|-----------0---0---------------0---------
D|-------------2---2--0--3--3--3---2--0--3-
A|-----------------------------------------
E|-----------------------------------------

e|-------------------------------0--3--0---1-
B|0---1--0--1----------------------------3---
G|--0---------0--0-----0---------------------
D|-------------------2---2--0--3-------------
A|-------------------------------------------
E|-------------------------------------------

e|-----------------------------------
B|0--0--0--1--3---0--0--0--1--3------
G|--------------0---------------0--0-
D|-----------------------------------
A|-----------------------------------
E|-----------------------------------

e|---------------0--5------------------------------------------------------------
B|0--0--1--3---0------0--0--0--0--2--2--0--0--0--0--2--2--0--0--0--0--0--2--2--2-
G|-------------------------------------------------------------------------------
D|-----------4-------------------------------------------------------------------
A|-------------------------------------------------------------------------------
E|-------------------------------------------------------------------------------

                          REFRÃO X4

CIFRA:

Intro: (C Em F7 E7 F7 D7 F7 G7)

C  Em       F7  E7
So    long ago
       F7         D7  F7         G7       
Was it in a dream?        Was it just a dream?
  C  Em      F7    E7
I know, yes I know
              F7       D7 F7               G7
It seemed so very real,      it seemed so real to me
G7
Took a walk down the street
Thru the heat whispered trees
                   Em9 A7 Em9 A7  Em9 A7  Em9 A7
I thought I could hear  (hear  , hear  , hear  )
Em                A7     Em             A7
Somebody call out my name as it started to rain
Em                  A7
Too spirits dancing so strange 
Gm7      C                Gm7 
Ah! b?wakawa poussÈ, poussÈ
Gm7      C                Gm7
Ah! b?wakawa poussÈ, poussÈ
Gm7      C                  D7  G7
Ah! b?wakawa poussÈ, poussÈ
C  Em       F7   E7
Dream, dream away
       F7        D7  F7           G7
Magic in the air,       was magic in the air?
   C   Em      F7       E7
I believe, yes I believe
        F7        D7  F7           G7
More I cannot say,       what more can I say?
G7
On a river of sound
Thru the mirror go round, round
                   Em9 A7 Em9 A7 Em9  A7 Em9  A7
I thought I could feel   (feel  , feel  , feel  )
Em             A7      Em               A7           Em
Music touching my soul,  something warm, sudden cold
                     A7
The spirit dance was unfolding
Gm7      C                Gm7
Ah! b?wakawa poussÈ, poussÈ
Gm7      C                Gm7
Ah! b?wakawa poussÈ, poussÈ
Gm7      C                  D7 G7
Ah! b?wakawa poussÈ, poussÈ

Gm7      C                Gm7
Ah! b?wakawa poussÈ, poussÈ
Gm7      C                Gm7
Ah! b?wakawa poussÈ, poussÈ
Gm7      C                Gm7
Ah! b?wakawa poussÈ, poussÈ
Gm7      C                Gm7
Ah! b?wakawa poussÈ, poussÈ
Gm7      C                Gm7
Ah! b?wakawa poussÈ, poussÈ
Gm7      C                Gm7
Ah! b?wakawa poussÈ, poussÈ
Gm7      C                Gm7
Ah! b?wakawa poussÈ, poussÈ
Gm7      C                Gm7
Ah! b?wakawa poussÈ, poussÈ
Gm7      C                Gm7
Ah! b?wakawa poussÈ, poussÈ
00:00 / 00:00
Outros vídeos desta música
Repetir
Outros vídeos desta música
Composição de John Lennon
Colaboração e revisão:
  • Victor Martins
29.460 exibições
    • ½ Tom
    • A
    • Bb
    • B
    • C
    • Db
    • D
    • Eb
    • E
    • F
    • F#
    • G
    • Ab
  • Adicionar à lista

    0 comentários

    Ver todos os comentários

    Conseguiu tocar?

    6 Tocaram 0 Ainda não

    Grave um vídeo tocando #9 Dream e nos envie!

    Entre para oCifra Club PRO

    Tenha acesso a benefícios exclusivos no App e no Site

    • Chega de anúncios

    • Prioridade de compra em lançamentos

    • Mais recursos no app do Afinador

    • Atendimento Prioritário

    • Descontos nos produtos Cifra Club

    • Ajude a produzir mais conteúdo

    00:00 / 00:00

    Cifra Club Pro

    Aproveite o Cifra Club com benefícios exclusivos e sem anúncios
    Cifra Club Pro
    Aproveite o Cifra Club com benefícios exclusivos e sem anúncios
    OK