Notificações Amigos pendentes

      John Lennon

      Imagine

      20.545 exibições
      G-------------------------------------------------
      D-------------------------------------------------
      A------------------------------5---------3-------
      E--1--------------0------------------------------
           I-mag-ine all  the peo-ple
      
      G---------------------------------------------------------
      D---------------------------------------------------------         
      A-------------------------------------------------------
      E---3----------------------------3------------------------
           liv - ing   for to- day                   Ah.....
      
      G-------------------------------------------------------------------------------------
      D-------------------------------------------------------------------------------------
      A-3------------------------------------------------------3----------------------------
      E----------------------------------------1--------------------------------------------
           I - mag - ine there's no coun - tries                    It is - n't hard - to do
      
      G-------------------------------------------------------------------------------------
      D-------------------------------------------------------------------------------------
      A----------3---------------------------------------------3----------------------------
      E-1-------------------------------------------1---------------------------------------
                   Noth - ing to kill ___ or dle _____ for            and no re - li - gion - too
      
      G-------------------------------------------------------------------------------
      D--------------------------------------------------------------------------------
      A------------------------------------------------------------5-------3----------
      E-1-------1----------------------0----------------------------------------------
                            I - mag - ine all                the peo - ple
      
      G------------------------------------------------------------------------------------------------------
      D------------------------------------------------------------------------------------------------------
      A---------------------------------------------------------------------------------------3--------------
      E---3----------------------------3------------1-------------------3--------------------------------0
          liv - ing    life in peace_____  You ....               you may say _________  I'm a dream - er
      
      G--------------------------------------------------------------------------------------------------
      D--------------------------------------------------------------------------------------------------
      A--------------------------------------------3----------------1---------------------3-------------
      E---1---------------3------------------------------0----------------------------------------------
                   But I'm not the on - ly one_____                             I hope some day_____
      
      G-------------------------------------------------------------------------------
      D-------------------------------------------------------------------------------
      A---------3-------------------------------------------------------3-------------
      E------------------------0-------1--------------3-------------------------------
         you'll join  us_______                 and the world ____ wil     be as one  
      
      G-------------------------------------------------------------------------------------
      D-------------------------------------------------------------------------------------
      A-3------------------------------------------------------3----------------------------
      E----------------------------------------1---------------------------------------------
             I - mag - ine   no po-ses                                   I wonder if___ you can
      
      G-------------------------------------------------------------------------------------------
      D-------------------------------------------------------------------------------------------
      A----------3----------------------------------------------------3---------------------------
      E-1------------------------------------------------1----------------------------------------
                        No need for greed _ or hun       - ger             a brother-hood of man
      
      G-------------------------------------------------------------------------------
      D--------------------------------------------------------------------------------
      A------------------------------------------------------------5-------3----------
      E-1-------1----------------------0----------------------------------------------
                            I - mag - ine all                the peo - ple
      
      G------------------------------------------------------------------------------------------------------
      D-------------------------------------------------------------------------------------------------------
      A----------------------------------------------------------------------------------------3-------------
      E---3----------------------------3-------------1-------------------3---------------------------------0
         shar - ing    all  the world__   You ....                you may say _________  I'm a dream - er
      
      G--------------------------------------------------------------------------------------------------
      D--------------------------------------------------------------------------------------------------
      A--------------------------------------------3----------------1---------------------3-------------
      E---1---------------3------------------------------0----------------------------------------------
                   But I'm not the on - ly one_____                             I hope some day_____
      
      G-------------------------------------------------------------------------------
      D-------------------------------------------------------------------------------
      A---------3-------------------------------------------------------3-------------
      E------------------------0-------1--------------3-------------------------------
         you'll   join  us_______                 and the world ____ wil   live as one

      Comentários 0

      140 .
      140 cancelar
      0:00 / 0:00

      Capítulos

        2 versões de baixo exibições contribuição e correção
        1 versão de bateria exibições contribuição e correção
        play/pausefechar subir/descer velocidade
        6ª corda E5ª corda A4ª corda D3ª corda G2ª corda B1ª corda E
          acordes
          publicidade
          fechar
          ok