Cifra Club

Aprenda

Star Wars Darth Vader Theme

John Williams

Cifra: Principal (violão e guitarra)
Tom: F
E|-------------------|--------------------------|-------------------|
B|-------------------|--------------------------|-------------------|
G|-------------------|--------------------------|-2---2-3-2-1-0---0-|
D|-------------------|-2-2-2-3-0----------------|---0-----------4---|
A|-0-0-0---3-0---3-0-|-----------3---3-0--------|-------------------|
E|-------1-----1-----|-------------1------------|-------------------|

E|-------------------|--------------------------|-------------------|
B|-------------------|--------------------------|-------------------|
G|--2-3-2-1-0---0----|--------------------------|-2---2-3-2-1-0---0-|
D|------------4------|--------------------------|---0-----------4---|
A|-------------------|---3-0----3-0-------------|-------------------|
E|-------------------|-1------1-----------------|-------------------|

E|-------------------|--------------------------|
B|-------------------|--------------------------|
G|--2-3-2-1-0---0----|--------------------------|
D|------------4------|--------------------------|
A|-------------------|---3-0----3-0-------------|
E|-------------------|-1------1-----------------|

Colaboração e revisão:
  • everton Lima
  • gabriel lopes
  • Sergio Nascimento
67.211 exibições
    • ½ Tom
    • A
    • Bb
    • B
    • C
    • Db
    • D
    • Eb
    • E
    • F
    • F#
    • G
    • Ab
  • Adicionar à lista

    0 comentários

    Mostrar mais comentários

    Conseguiu tocar?

    43 Tocaram 2 Ainda não

    Grave um vídeo tocando Star Wars Darth Vader Theme e mande pra gente!

    00:00 / 00:00
    outros vídeos desta música
    repetir qualidade Automático
    Outros vídeos desta música
    00:00 / 00:00
    Automático
    OK