Cifra Club

Aprenda

Sweet Home Chicago

Robert Johnson

Cifra: Principal (violão e guitarra)
tom: F (forma dos acordes no tom de E) Capotraste na 1ª casa
[Intro]

E|-12-12-12-12--12--12-12-12-12--12--12-12-12-12------|
B|----------------------------------------------------|
G|----------------------------------------------------|
D|--------------11---------------10--------------9----|
A|----------------------------------------------------|
E|----------------------------------------------------|

                     B7
E|-9---9----------0--2--2-----------------------------|
B|----------------0--0--0-----------------------------|
G|-8---8-------------2--2-----------------------------|
D|-------------------1--1-----------------------------|
A|-------------------2--2-----------------------------|
E|----------------------------------------------------|

[Primeira Parte]

   E                       A 
E|----------------------------------------------------|
B|----------------------------------------------------|
G|----------------------------------------------------|
D|------------------------2---2-4---4-5---5-4---------| (2x)
A|-2---2-4--4-2---2-4-----0---0-0---0-0---0-0---------|
E|-0---0-0--0-0---0-0---------------------------------|

    
   B7                                              B7
E|-2~-7b-7b-7b-7b-7b--------------0-----0-----0----2~-|
B|-0~-8b-8b-8b-8b-8b-----5~-----3-----2-----1------0~-|
G|-2~----------------4-6------4-----3-----2-----1--2~-|
D|-1~----------------------------------------------1~-|
A|-2~----------------------------------------------2~-|
E|----------------------------------------------------|

E    A                       E
Oh, baby, don't you want to go?
E    A                       E 
Oh, baby, don't you want to go?
             B7
Back to the land of California
        A                  B7
To my sweet home, Chicago?

E    A                       E
Oh, baby, don't you want to go?
E    A                       E 
Oh, baby, don't you want to go?
             B7
Back to the land of California
        A                  B7
To my sweet home, Chicago?

[Segunda Parte]

   E                       
E|----------------------------------------------------|
B|----------------------------------------------------|
G|----------------------------------------------------|
D|----------------------------------------------------| (2x)
A|-2---2-4--4-5--5-4---2---2-4--4-5--5-4--------------|
E|-0---0-0--0-0--0-0---0---0-0--0-0--0-0--------------|

   A
E|----------------------------------------------------|
B|----------------------------------------------------|
G|----------------------------------------------------|
D|-2---2-4--4-5--5-4---2---2-4--4-5--5-4--------------|
A|-0---0-0--0-0--0-0---0---0-0--0-0--0-0--------------|
E|----------------------------------------------------|

E|-2~-7b-7b-7b-7b-7b--------------0-----0-----0----2~-|
B|-0~-8b-8b-8b-8b-8b-----5~-----3-----2-----1------0~-|
G|-2~----------------4-6------4-----3-----2-----1--2~-|
D|-1~----------------------------------------------1~-|
A|-2~----------------------------------------------2~-|
E|----------------------------------------------------|

 E
Now one and one is two

Two and two is four

I'm heavy loaded baby

I'm booked I gotta go

         A
Cryin', baby
                          E
Honey, don't you want to go?
             B7
Back to the land of California
        A                  B7
To my sweet home, Chicago?

      E
Now two and two is four

Four and two is six

You gonna keep monkeyin round here friend-boy

You gonna get your business all in a trick

                 A
But I'm cryin', baby
                        E
Honey, don't you wanna go?
             B7
Back to the land of California
        A                  B7
To my sweet home, Chicago?

     E
Now six and two is eight

Eight and two is ten
  
Friend-boy she trick you one time
                
She sure gonna do it again

                 A
But I'm cryin', hey hey
                         E
Baby, don't you want to go?
             B7
Back to the land of California
        A                  B7
To my sweet home, Chicago?

     E
I'm goin to california
 
From there to Des Moines Iowa

Somebody will tell me that you

Need my help someday

         A
Cryin', hey hey
                        E
Baby don't you want to go?
             B7
Back to the land of California
        A                  B7
To my sweet home, Chicago?
Composição de Leon Russell / Marc Benno / Robert Johnson / Robert Leroy Johnson
Colaboração e revisão:
  • Getúlio Vasconcelos
57.799 exibições
    • ½ Tom
    • A
    • Bb
    • B
    • C
    • Db
    • D
    • Eb
    • E
    • F
    • F#
    • G
    • Ab
  • Adicionar à lista

    0 comentários

    Ver todos os comentários

    Conseguiu tocar?

    8 Tocaram 1 Ainda não

    Grave um vídeo tocando Sweet Home Chicago e nos envie!

    00:00 / 00:00
    Outros vídeos desta música
    Repetir Qualidade Automático
    Outros vídeos desta música
    00:00 / 00:00
    Automático

    Cifra Club Pro

    Aproveite o Cifra Club com benefícios exclusivos e sem anúncios
    Cifra Club Pro
    Aproveite o Cifra Club com benefícios exclusivos e sem anúncios
    OK