Cifra Club

Cai Na Real

Jorge e Mateus

Cifra: Principal
exibições 267.447
Tom: D
Intro: G A D D G A D D A
E|---------------------------------------|
B|---------------------------------------|
G|-----------7-9s11s9-7------------------|
D|-----5/7----------------7/9------------|
A|---------------------------------------|
E|---------------------------------------|

E|---------------------------------------|
B|---------------------------------------|
G|-----------7-9-9s11s9-7-9-9/11---------|
D|-----5/7-------------------------------|
A|---------------------------------------|
E|---------------------------------------|

E|---------------------------------------|
B|---------------------------------------|
G|-----------7-9s11s9-7------------------|
D|-----5/7---------------7-7/9-----------|
A|---------------------------------------|
E|---------------------------------------|

E|---------------------------------------|
B|---------------------------------------|
G|-------7-9-9s11s9-7-9-9/11-9-7---------|
D|--5/7--------------------------7s8s7-0-|
A|---------------------------------------|
E|---------------------------------------|

  D
Me envenena com seus beijos e carícias
        A
Me envenena pra depois vir me dizer
         G
Que esse caso de amor é impossível
           D
E não me ama, e só quer curtir prazer
       A
Nada mais, nada mais
      G                                      D
Sou apenas, um ombro amigo um amante em sua cama
                      G
Nada mais, e depois chora
                                 D
Suas palavras desabando num segundo
                                       E7
Tantas mentiras, solidão é o nosso mundo
           E                        A
Transas vazias, sem sentido e sem amor
         G
Cai na real, cai na real
                                        D
Daqui a pouco eu visto a roupa e vou embora
                                      E7
Pra nunca mais te procurar esta é a hora
                                    A7
Meu coração já não suporta o mesmo mal
Acordes para:
    Colaboração e revisão:

    0 comentários

      mostrar mais comentários

      Conseguiu tocar?

      8tocaram0ainda não

      Grave um vídeo tocando Cai Na Real e mande pra gente!

      00:00 / 00:00
      outros vídeos desta música
      repetirqualidadeautomática
      Outro vídeos desta música
        00:00 / 00:00
        automática
        OK