Enviar cifraEntrar

De Tanto Te Querer

Jorge e Mateus

Cifra: Principal
exibições 2.643.574
Tom: D
Intro 2x:

 D9                 D4                  D                  D4

E |----5----5------5----5------5----5-------3----3-----------|
B|----3-----3-----2-----2-----3-----3------3-----3----------|
G|----2------2----2------2----2------2-----2------2---------|
D|----0--0--------2--2--------4--4---------0--0-------------|
A|----x-----------x-----------2------------x----------------|


D                    A/C#
Larga tudo e vem correndo,
Bm                  E7
vem matar minha vontade,
 G                         Bm A
já faz tempo que eu tô sofrendo,
E7                    A4       A
mereço um pouco de felicidade
D                    A/C#
Larga tudo e vem correndo,
Bm                          E7
pra eu mergulhar no teu sorriso,
G                   Bm7 A  E7                A4     A
me arranca desse inferno me leva pro seu paraíso

G                          Bm7                   E7         G A
Eu não desisto do que eu quero mais não me desespero, te espero
D                        E7         G                     A
Na tarde quente ou madrugada fria, na tristeza ou na alegria

Solo:


E |----------------------------------------------|
B|------------------------5---------------------|
G|-------------2--4--4s6-----6s4--2--4--2-------|
D|----0--2--4------------------------------2--0-|
A|----------------------------------------------|
E|----------------------------------------------|


D                  Em                       G
ficar sozinho não rola mais amor não se implora,
A                D
nem se joga fora
                   Em                     G
O amor a gente conquista e não há quem desista,
 A                    D
se e o coração chora.

D             A/C#       Em
Chora com vontade de te ver,
              G    A    D
chora com saudade de você,
               A/C#           Em
chora as vezes eu nem sei porque,
             G     A       D     A/C#       E7
deve ser te tanto te querer.. ieeeeeeee ieeeee
    G      A       D
de tanto amar você.

Solo:

     D          Em            G       A

E |------------2-----------------------3\2--0----------------------
B|--------3-5---5--3-5-3-5-3-5-3-3------------5b7b5--3-3----------
G|--2-2-2---------------------------------------------------------
D|----------------------------------------------------------------
A|----------------------------------------------------------------
E|----------------------------------------------------------------


G                          Bm7                   E7         G A
Eu não desisto do que eu quero mais não me desespero, te espero...
D                        E7         G                     A
Na tarde quente ou madrugada fria, na tristeza ou na alegria...

Solo:


E |----------------------------------------------|
B|------------------------5---------------------|
G|-------------2--4--4s6-----6s4--2--4--2-------|
D|----0--2--4------------------------------2--0-|
A|----------------------------------------------|
E|----------------------------------------------|


 D                  Em                       G
ficar sozinho não rola mais amor não se implora,
 A                D
nem se joga fora
                  Em                     G
O amor a gente conquista e não há quem desista,
 A                    D
se e o coração chora.

D        A/C#       Em
Chora com vontade de te ver, (riff 1)
              G    A9    D
chora com saudade de você,   (riff 2)
               A/C#           Em
chora as vezes eu nem sei porque, (riff 1)
             G     A9      D     A/C#       E7
deve ser te tanto te querer (riff 2) ieeeeeeee ieeeee (riff 3)
    G      A9      D    A/C#       E7
de tanto amar você (riff 4) ieeeeeeee ieeeee (riff 3)


E |------2-5-2------------|
B|--3-5-------5-3-3------|
G|-----------------------|
D|-----------------------|
A|-----------------------|
E|-----------------------|



(riff 1)

E |--------------------------------------------------------------
B|-3-3-3-3-2---2-2-3--------------------------------------------
G|------------4-------------------------------------------------
D|--------------------------------------------------------------
A|--------------------------------------------------------------
E|--------------------------------------------------------------


(riff 2)

E |--------------------------------------------------------------
B|-3-3-3-3-2h3-2-3-2-3------------------------------------------
G|--------------------------------------------------------------
D|--------------------------------------------------------------
A|--------------------------------------------------------------
E|--------------------------------------------------------------


(riff 3)

E |--------------------------------------------------------------
B|-3h5---3h5-3--------------------------------------------------
G|--------------------------------------------------------------
D|--------------------------------------------------------------
A|--------------------------------------------------------------
E|--------------------------------------------------------------


(riff 4)

E|--------------------------------------------------------------
B|-3-2h3-2-3-2-3------------------------------------------------
G|--------------------------------------------------------------
D|--------------------------------------------------------------
A|--------------------------------------------------------------
E|-------------------------------------------------------------
  • 1
  • 2
  • 3
  • 4
  • 5
  • 6
  • 7
  • 8
  • 9
  • 10
  • 11
  • 12

    0 comentários

      mostrar mais comentários

      Conseguiu tocar?

      73tocaram0ainda não

      Grave um vídeo tocando De Tanto Te Querer e mande pra gente!

      00:00 / 00:00
      outros vídeos desta música
      repetirqualidadeautomática
      • automática
      Outro vídeos desta música
        Capítulos
        • Início
        • Acorde da introdução
        • Tocando introdução
        • Ensinando introdução
        • Tocando introdução devagar
        • Acordes da primeira parte
        • Tocando primeira parte
        • Ritmo da primeira parte
        • Passagem do ritmo na primeira parte
        • Ensinando passagem da primeira parte
        • Acordes do pré-refrão
        • Tocando pré-refrão
        • Ritmo do pré-refrão
        • Passagem do ritmo no pré-refrão
        • Acordes do refrão
        • Tocando refrão
        • Passagem do ritmo no refrão
        • Tocando solo do meio da música
        • Ensinando solo
        • Tocando solo devagar
        • Encerramento
        00:00 / 00:00
        automática
        • automática
        fecharplay/pause subir/descer velocidade
          acordes
          fechar
          OK
          Feedback