Cifra Club

De Tanto Te Querer

Jorge e Mateus

Cifra: Principal (violão e guitarra)
exibições 2.822.771
Tom: D
[Intro]

      D9          D7M         Bm7          D5
E|----5----5------5----5------5----5-------3----5-----|
B|----3-----3-----2------2----3-----3------3-----3----|
G|----2------2----2-------2---2------2-----2------2---|
D|----0--0--------2--2--------4--4---------0--0-------|
A|----x-----------x-----------2------------x----------|
E|----------------------------------------------------|

[Primeira Parte]

 D                   A/C#
Larga tudo e vem correndo
 Bm                 E7
Vem matar minha vontade
 G                         Bm A
Já faz tempo que eu tô sofrendo
 E7                   A4    A
Mereço um pouco de felicidade
 D                   A/C#
Larga tudo e vem correndo
  Bm                          E7
Pra eu mergulhar no teu sorriso
 G                  Bm7  A
Me arranca desse inferno 
    E7              A4  A
Me leva pro seu paraíso

[Segunda Parte]

 G                         Bm7                   E7   
Eu não desisto do que eu quero mais não me desespero
      G A
Te espero
 D                       E7        
Na tarde quente ou madrugada fria
 G                     A
Na tristeza ou na alegria

[Solo]

E|----------------------------------------------------|
B|------------------------5---------------------------|
G|-------------2--4--4s6-----6s4--2--4--2-------------|
D|----0--2--4------------------------------2--0-------|
A|----------------------------------------------------|
E|----------------------------------------------------|

[Refrão]

 D                 Em                       G
Ficar sozinho não rola mais amor não se implora
 A               D
Nem se joga fora
                    Em                    G
O amor a gente conquista e não há quem desista
 A                   D
Se e o coração chora

  D            A/C#      Em
Chora com vontade de te ver
              G    A    D
Chora com saudade de você
               A/C#            Em
Chora as vezes eu nem sei porque
             G     A       D  A/C#  E7
Deve ser te tanto te querer
    G      A       D
De tanto amar você

[Solo]

   D              Em          G       A
E|-----------2---------------------3\2--0-------------|
B|-------3-5---5--3-5-3-5-3-5-3-3----------5b7b5--3-3-|
G|-2-2-2----------------------------------------------|
D|----------------------------------------------------|
A|----------------------------------------------------|
E|----------------------------------------------------|

[Segunda Parte]

 G                         Bm7                   E7   
Eu não desisto do que eu quero mais não me desespero
      G A
Te espero
 D                       E7        
Na tarde quente ou madrugada fria
 G                     A
Na tristeza ou na alegria

[Solo]

E|----------------------------------------------------|
B|------------------------5---------------------------|
G|-------------2--4--4s6-----6s4--2--4--2-------------|
D|----0--2--4------------------------------2--0-------|
A|----------------------------------------------------|
E|----------------------------------------------------|

 D                  Em                       G
Ficar sozinho não rola mais amor não se implora
 A                D
Nem se joga fora
                  Em                     G
O amor a gente conquista e não há quem desista
 A                    D
Se e o coração chora

D        A/C#       Em
Chora com vontade de te ver (riff 1)
              G    A9    D
Chora com saudade de você   (riff 2)
               A/C#           Em
Chora as vezes eu nem sei porque (riff 1)
             G     A9      D     A/C#       E7
Deve ser te tanto te querer (riff 2) ieeeeeeee ieeeee (riff 3)
    G      A9      D    A/C#       E7
De tanto amar você (riff 4) ieeeeeeee ieeeee (riff 3)

E|------2-5-2-----------------------------------------|
B|--3-5-------5-3-3-----------------------------------|
G|----------------------------------------------------|
D|----------------------------------------------------|
A|----------------------------------------------------|
E|----------------------------------------------------|

(riff 1)
E|----------------------------------------------------|
B|-3-3-3-3-2---2-2-3----------------------------------|
G|------------4---------------------------------------|
D|----------------------------------------------------|
A|----------------------------------------------------|
E|----------------------------------------------------|

(riff 2)
E|----------------------------------------------------|
B|-3-3-3-3-2h3-2-3-2-3--------------------------------|
G|----------------------------------------------------|
D|----------------------------------------------------|
A|----------------------------------------------------|
E|----------------------------------------------------|

(riff 3)
E|----------------------------------------------------|
B|-3h5---3h5-3----------------------------------------|
G|----------------------------------------------------|
D|----------------------------------------------------|
A|----------------------------------------------------|
E|----------------------------------------------------|

(riff 4)
E|----------------------------------------------------|
B|-3-2h3-2-3-2-3--------------------------------------|
G|----------------------------------------------------|
D|----------------------------------------------------|
A|----------------------------------------------------|
E|----------------------------------------------------|

0 comentários

mostrar mais comentários

Conseguiu tocar?

84 tocaram 1 ainda não

Grave um vídeo tocando De Tanto Te Querer e mande pra gente!

00:00 / 00:00
outros vídeos desta música
repetir qualidade Automático
Outros vídeos desta música
00:00 / 00:00
Automático
Capítulos
  • Início
  • Acorde da introdução
  • Tocando introdução
  • Ensinando introdução
  • Tocando introdução devagar
  • Acordes da primeira parte
  • Tocando primeira parte
  • Ritmo da primeira parte
  • Passagem do ritmo na primeira parte
  • Ensinando passagem da primeira parte
  • Acordes do pré-refrão
  • Tocando pré-refrão
  • Ritmo do pré-refrão
  • Passagem do ritmo no pré-refrão
  • Acordes do refrão
  • Tocando refrão
  • Passagem do ritmo no refrão
  • Tocando solo do meio da música
  • Ensinando solo
  • Tocando solo devagar
  • Encerramento
OK