Cifra Club

Deixa de Marra

Jorge e Mateus

Cifra: Principal
exibições 32.820
Tom: A
Intro: F#m  D  A  E

   F#m        D                        A
E|-9--9--9---7--5--5---9--9--9---7--5--5---|
B|-10-10-10--9--7--7---10-10-10--9--7--7---|
G|-----------------------------------------|
D|-----------------------------------------|
A|-----------------------------------------|
E|-----------------------------------------|


   A               E              F#m
E|-9--9--9---7--5------7-5-5-5-5-4-5-------|
B|-10-10-10--9--7--3/5---7-7-7-7-5-7-------|
G|-----------------------------------------|
D|-----------------------------------------|
A|-----------------------------------------|
E|-----------------------------------------|


F#m                   D
Meu coração só quer você
                           A
E nos meu olhos pode confirmar
                             E
Quando eu te vejo ele vai a mil
F#m                           D
Os teus segredos eu já desvendei,
                           A
Sinto o amor fluindo pelo ar
                             E
E essa história me levou a crer

Pré-Refrão:
D                                F#m
Sem você aqui do lado nada tem valor
                                    D
Noite e dia to sonhando viver esse amor
                       A
Mais pra você nada é real
Riff 1:

E|--------------|
B|--------------|
G|--6-6-3-2---2-|
D|----------4---|
A|--------------|
E|--------------|


D                                F#m
Você e a joia rara que eu sonhava ter
                                   D
Seu valor incalculável me fez perceber
                             E
Não sou mais dono do meu coração

Refrão:
A                              E
Todo dia toda hora só quero você
                                       Bm
Coração dispara fácil só por te encontrar
                          D      ( E D )
Sem você não posso ser feliz
A                                      E
Eu já sei que sou o homem feito pra você
                                      Bm
Tu já sabe já faz tempo pra que disfarçar
                            D
Você é tudo que eu sempre quis,
            E      D        F#m
Deixa de marra, e vem me amar.
Solo:

   F#m        D                        A
E|-9--9--9---7--5--5---9--9--9---7--5--5---|
B|-10-10-10--9--7--7---10-10-10--9--7--7---|
G|-----------------------------------------|
D|-----------------------------------------|
A|-----------------------------------------|
E|-----------------------------------------|


   A               E              F#m
E|-9--9--9---7--5------7-5-5-5-5-4-5-------|
B|-10-10-10--9--7--3/5---7-7-7-7-5-7-------|
G|-----------------------------------------|
D|-----------------------------------------|
A|-----------------------------------------|
E|-----------------------------------------|


Pré-Refrão:
D                                F#m
Sem você aqui do lado nada tem valor
                                    D
Noite e dia to sonhando viver esse amor
                       A
Mais pra você nada é real
Riff 1:

E|--------------|
B|--------------|
G|--6-6-3-2---2-|
D|----------4---|
A|--------------|
E|--------------|


D                                F#m
Você e a joia rara que eu sonhava ter
                                   D
Seu valor incalculável me fez perceber
                             E
Não sou mais dono do meu coração

Refrão 2x:
A                              E
Todo dia toda hora só quero você
                                       Bm
Coração dispara fácil só por te encontrar
                          D      ( E D )
Sem você não posso ser feliz
A                                      E
Eu já sei que sou o homem feito pra você
                                      Bm
Tu já sabe já faz tempo pra que disfarçar
                            D
Você é tudo que eu sempre quis,
            E      D        A
Deixa de marra, e vem me amar.
Riff 2:

   F#m              D
E|---------------------|
B|---------------------|
G|---------------------|
D|------7-9-7-9-11-12--|
A|--7/9----------------|
E|---------------------|


   D                        A
Deixa de marra, e vem me amaaaaaaaaaaaaar.
   E
Eieeeeeeeee

                   F#m
E|-9--9--9---7--5--5--|
B|-10-10-10--9--7--7--|
G|--------------------|
D|--------------------|
A|--------------------|
E|--------------------|

Acordes para:
    Colaboração e revisão:
    • alexsander

    0 comentários

      mostrar mais comentários

      Conseguiu tocar?

      4tocaram0ainda não

      Grave um vídeo tocando Deixa de Marra e mande pra gente!

      00:00 / 00:00
      outros vídeos desta música
      repetirqualidadeautomática
      Outro vídeos desta música
        00:00 / 00:00
        automática
        OK