Notificações Amigos pendentes

      Jorge e Mateus

      Do Brasil a Argentina (Tô Indo Te Buscar)

      526.038 exibições
      Tom: G
      (intro) G  D/G  C/G D/G G D/G G
      
      (solo base 2x) Am C G
      
      
      E|--3p2--2-2/3--3---------8p7---7--8/10-10h12p10-7/8/10--|
      B|-----3---3/5--5-------------8---10/12----------8/10/12-|
      G|-------------------------------------------------------|
      D|-------------------------------------------------------|
      A|----------------0-2-3-3--------------------------------|
      E|-------------------------------------------------------|
      
      
      E|--3p2--2-2/3--3----------------8p7--------------------7-7---------------|
      B|------3--3/5--5--------------------8-8/10-8-8----------------------8----|
      G|----------------------------------------------------5/7-------5/7-------|
      D|------------------------------------------------------------------------|
      A|------------------0-2-3-3-----------------------------------------------|
      E|------------------------------------------------------------------------|
      
      
      G                                    D/G
      Já comprei o passaporte dos meus sonhos,
              C/G               C              G  (riff)
      No primeiro avião eu vou pra buscar meu amor.
             G                   D/G
      Ela mora na província de Santa Fé,
           C/G                   D/G
      E Rosário me espera, e se Deus quiser,
              C                G     (riff)
      hoje mesmo eu vou, pra Argentina.
      
              Am                           C              G
      Ya no puedo más vivir quedarme un día sin sentir, tu calor!
              Am                C                             G        G7
      De piensar me vuelvo loco de envolverme en tus besos, deliciosos.
      
      C            D             G   D/F#   Em
      Eu não fico nem um minuto mais nesse país,
         C            D                         G   G7
      Vou buscar alguém,alguém pra me fazer feliz.
      C            D             G  D/F#   Em
      No primeiro avião, hoje mesmo vou viajar,
                  C                D
      eu vou pra Argentina...  hou hou
                     G  D/G  G
      To indo te buscar.
      
      
      E|--3p2--2-2/3--3---------8p7---7--8/10-10h12p10-7/8/10--|
      B|-----3---3/5--5-------------8---10/12----------8/10/12-|
      G|-------------------------------------------------------|
      D|-------------------------------------------------------|
      A|----------------0-2-3-3--------------------------------|
      E|-------------------------------------------------------|
      
      
      E|--3p2--2-2/3--3----------------8p7--------------------7-7-------7-------|
      B|------3--3/5--5--------------------8-8/10-8-8----------------------8----|
      G|----------------------------------------------------5/7-------5/7-------|
      D|------------------------------------------------------------------------|
      A|------------------0-2-3-3-----------------------------------------------|
      E|------------------------------------------------------------------------|
      
      
             G                   D/G
      Ela mora na província de Santa Fé,
           C/G                   D/G
      E Rosário me espera, e se Deus quiser,
              C                      G
      hoje mesmo eu vou, pra Argentina.
      
              Am                           C              G
      Ya no puedo más vivir quedarme un día sin sentir, tu calor!
              Am                C                             G        G7
      De piensar me vuelvo loco de envolverme en tus besos, deliciosos.
      
      C            D             G   D/F#    Em
      Eu não fico nem um minuto mais nesse país,
                     C     D                G    G7
      Vou buscar alguém, alguém pra me fazer feliz
      C             D           G    D/F#   Em
      No primeiro avião, hoje mesmo vou viajar,
                      C                D
      eu vou pra Argentina...   howhow!!
                      G  D/F#  Em
      To indo te buscar
                      C                 D
      eu vou pra Argentina...   howhow!!
                        G  D/G C/G D/G G D/G
      To indo te buscar
      
      (final)
      
      E|-------------------------|
      B|-------------------------|
      G|----0--------------------|
      D|-------4-2-0-------0-----|
      A|----------------0h2------|
      E|----------------------3--|
      
        Composição: Jorge Barcelos; Mateus Liduario; Colaboração e revisão:
        • tonyviola47
        • thiego melville
        • THULIO MELO
        • Felipe Lima
        • +4

        Comentários 13

        140 .
        • dayane dayane: Em 26/07/2014 22:32

          linda D++++

        • bruuno bruuno: Em 14/04/2013 15:54

          videos aula .

        • natanael.borges.3 natanael.borges.3: Em 23/02/2013 17:50

          facil de mais e so escutar a musica q pega o solo de primeira mt faciu

        • natanael.borges.3 natanael.borges.3: Em 23/02/2013 13:01

          facil de mais pra aprender o solo e so escutar a musica no kboing

        • lockpardo lockpardo: Em 27/07/2012 17:28

          alguem sabe ela simplificada ?

        • llukasouza llukasouza: Em 31/01/2012 12:51

          o paixãoo maluca sóoo

        • lindissy lindissy: Em 13/12/2011 10:44

          gente alguem entendi o dedilhado da musica?
          se souber me ensina...

        • lindissy lindissy: Em 13/12/2011 10:41

          otima! tah soh um pouquinho complicada mais com bastante treina da pra pegar!

        • brenn0 brenn0: Em 03/09/2011 19:53

          alguem sabe ritmo

          • andressaaaa andressaaaa: Em 21/11/2012 18:59

            tem duas batidas que ficam boas:
            1°: baixo baixo cima cima baixo cima
            2°: baixo cima abafa cima cima baixo cima

        140 cancelar
        0:00 / 0:00

        Capítulos

          2 versões de violão dificuldade exibições contribuição e correção
          2 versões de guitarra dificuldade exibições contribuição e correção
          2 versões de cavaco dificuldade exibições contribuição e correção
          2 versões de teclado dificuldade exibições contribuição e correção
          play/pausefechar subir/descer velocidade
          6ª corda E5ª corda A4ª corda D3ª corda G2ª corda B1ª corda E
            acordes
            publicidade
            fechar
            ok