Cifra Club

Do Brasil à Argentina (Tô Indo Te Buscar)

Jorge e Mateus

Cifra: Principal
exibições 557.519
Tom: G
Intro: G  D/G  C/G D/G G D/G G

Solo Base (2x): ( Am C G )

E|--3p2--2-2/3--3---------8p7---7--8/10-10h12p10-7/8/10--|
B|-----3---3/5--5-------------8---10/12----------8/10/12-|
G|-------------------------------------------------------|
D|-------------------------------------------------------|
A|----------------0-2-3-3--------------------------------|
E|-------------------------------------------------------|

E|--3p2--2-2/3--3----------------8p7--------------------7-7---------------|
B|------3--3/5--5--------------------8-8/10-8-8----------------------8----|
G|----------------------------------------------------5/7-------5/7-------|
D|------------------------------------------------------------------------|
A|------------------0-2-3-3-----------------------------------------------|
E|------------------------------------------------------------------------|

G                                    D/G
Já comprei o passaporte dos meus sonhos,
        C/G               C              G  (riff)
No primeiro avião eu vou pra buscar meu amor.
       G                   D/G
Ela mora na província de Santa Fé,
     C/G                   D/G
E Rosário me espera, e se Deus quiser,
        C                G     (riff)
hoje mesmo eu vou, pra Argentina.

        Am                           C              G
Ya no puedo más vivir quedarme un día sin sentir, tu calor!
        Am                C                             G        G7
De piensar me vuelvo loco de envolverme en tus besos, deliciosos.

C            D             G   D/F#   Em
Eu não fico nem um minuto mais nesse país,
   C            D                         G   G7
Vou buscar alguém,alguém pra me fazer feliz.
C            D             G  D/F#   Em
No primeiro avião, hoje mesmo vou viajar,
            C                D
eu vou pra Argentina...  hou hou
               G  D/G  G
To indo te buscar.

E|--3p2--2-2/3--3---------8p7---7--8/10-10h12p10-7/8/10--|
B|-----3---3/5--5-------------8---10/12----------8/10/12-|
G|-------------------------------------------------------|
D|-------------------------------------------------------|
A|----------------0-2-3-3--------------------------------|
E|-------------------------------------------------------|

E|--3p2--2-2/3--3----------------8p7--------------------7-7-------7-------|
B|------3--3/5--5--------------------8-8/10-8-8----------------------8----|
G|----------------------------------------------------5/7-------5/7-------|
D|------------------------------------------------------------------------|
A|------------------0-2-3-3-----------------------------------------------|
E|------------------------------------------------------------------------|

       G                   D/G
Ela mora na província de Santa Fé,
     C/G                   D/G
E Rosário me espera, e se Deus quiser,
        C                      G
hoje mesmo eu vou, pra Argentina.

        Am                           C              G
Ya no puedo más vivir quedarme un día sin sentir, tu calor!
        Am                C                             G        G7
De piensar me vuelvo loco de envolverme en tus besos, deliciosos.

C            D             G   D/F#    Em
Eu não fico nem um minuto mais nesse país,
               C     D                G    G7
Vou buscar alguém, alguém pra me fazer feliz
C             D           G    D/F#   Em
No primeiro avião, hoje mesmo vou viajar,
                C                D
eu vou pra Argentina...   howhow!!
                G  D/F#  Em
To indo te buscar
                C                 D
eu vou pra Argentina...   howhow!!
                  G  D/G C/G D/G G D/G
To indo te buscar

Final:
E|-------------------------|
B|-------------------------|
G|----0--------------------|
D|-------4-2-0-------0-----|
A|----------------0h2------|
E|----------------------3--|
Acordes para:

    0 comentários

      mostrar mais comentários

      Conseguiu tocar?

      22tocaram0ainda não

      Grave um vídeo tocando Do Brasil à Argentina (Tô Indo Te Buscar) e mande pra gente!

      00:00 / 00:00
      outros vídeos desta música
      repetirqualidadeautomática
      Outro vídeos desta música
        00:00 / 00:00
        automática
        OK