Cifra Club

Sosseguei

Jorge e Mateus

Cifra: Principal
exibições 1.448.261
Tom: G
Introdução: G  D  Em7  C

Parte 1 de 4
       G
E|--------7---------------------7-----------|
B|------8----x----------------8----x--------|
G|----7------x----7---------7------x-----7--|
D|-5---------x--5---5----5---------x---5---5|
A|-----------x---------------------x--------|
E|------------------------------------------|

Parte 2 de 4
       D
E|--------2---------------------2-----------|
B|------3----x----3-----------3----x-----3--|
G|----2------x--2---2-------2------x---2---2|
D|-0---------x-----------0---------x--------|
A|-----------x---------------------x--------|
E|------------------------------------------|

Parte 3 de 4
       Em7
E|--------7---------------------7-----------|
B|------8----x----------------8----x--------|
G|----7------x----7---------7------x-----7--|
D|-----------x--5---5--------------x---5---5|
A|-7---------x-----------7---------x--------|
E|------------------------------------------|

Parte 4 de 4
       C                     h.n
E|--------3---------------------------------|
B|------1----------------5------------------|
G|----0------------------5------------------|
D|--------------0h2-------------------------|
A|-3--------3-3-----3-----------------------|
E|------------------------------------------|


Primeira Parte:

Parte 1 de 4
       G
E|--------3---------------------3-----------|
B|------3----x----3-----------3----x-----3--|
G|----0------x--0---0-------0------x---0---0|
D|-----------x---------------------x--------|
A|-----------x---------------------x--------|
E|-3---------------------3------------------|

Parte 2 de 4
       D
E|--------2---------------------2-----------|
B|------3----x----3-----------3----x-----3--|
G|----2------x--2---2-------2------x---2---2|
D|-0---------x-----------0---------x--------|
A|-----------x---------------------x--------|
E|------------------------------------------|

Parte 3 de 4
       Em
E|--------0---------------------0-----------|
B|------0----x----0-----------0----x-----0--|
G|----0------x--0---0-------0------x---0---0|
D|-----------x---------------------x--------|
A|-----------x---------------------x--------|
E|-3---------------------3------------------|

Parte 4 de 4
       C
E|--------3---------------------------------|
B|------1-----------------------------------|
G|----0-------------------------------------|
D|--------------0h2-------------------------|
A|-3--------3-3-----3-----------------------|
E|------------------------------------------|


Parte 4 de 4 (Variação)
       C
E|--------3---------------------3-----------|
B|------1----x----1-----------1----x-----1--|
G|----0------x--0---0-------0------x---0---0|
D|-----------x---------------------x--------|
A|-3---------x-----------3---------x--------|
E|------------------------------------------|


      G
Tô virado já tem uns três dias
      D
Tô bebendo o que eu jamais bebi
       Em
Vou falar o que eu nunca falei
        C
É a primeira e a última vez

Segunda Parte:
    G
Eu sosseguei
                  D
Ontem foi a despedida

Da balada, dessa vida de solteiro
Em
   Eu sosseguei
                      C
Mudei a rota e meus planos
                               G
E o que eu tava procurando, eu achei
      D
Em vo___cê

Refrão:
               G
Se quer cinema eu sou par perfeito
                     D
Quer curtir balada, já tem seu parceiro
                   Em
Ou ficar em casa amando o dia inteiro
               C
Dividir comigo o seu brigadeiro

               G
E nessa vida agora somos dois

Três, quatro
     D
Quantos você quiser
             Em
A partir de hoje eu sou 
                   C
O homem de uma só mulher

Base do Solo:  G  D  Em  C

Solo:
Parte 1 de 3
E|-----------------------------------------------------|
B|-8~--10-10~--10/12-12~--8-8-8-8-8h10-----------------|
G|-----------------------------------------------------|
D|-----------------------------------------------------|
A|-----------------------------------------------------|
E|-----------------------------------------------------|

Parte 2 de 3
E|-----------------------------------------------------|
B|-7~--8-8~--8/10--10~---10--10/12/10--8\7-------------|
G|-----------------------------------------------------|
D|-----------------------------------------------------|
A|-----------------------------------------------------|
E|-----------------------------------------------------|

Parte 3 de 3
E|-----------------------------------------------------|
B|----7-7~--8-8-8-8--8/10-10--10/12\--5~---------------|
G|-9~--------------------------------------------------|
D|-----------------------------------------------------|
A|-----------------------------------------------------|
E|-----------------------------------------------------|

Repete a Segunda Parte:

    G
Eu sosseguei
                  D
Ontem foi a despedida

Da balada, dessa vida de solteiro
Em
   Eu sosseguei
                      C
Mudei a rota e meus planos
                               G
E o que eu tava procurando, eu achei
      D
Em vo___cê

Refrão Final:

               G
Se quer cinema eu sou par perfeito
                     D
Quer curtir balada, já tem seu parceiro
                   Em
Ou ficar em casa amando o dia inteiro
               C
Dividir comigo o seu brigadeiro

               G
E nessa vida agora somos dois

Três, quatro
     D
Quantos você quiser
             Em
A partir de hoje eu sou 
                   C
O homem de uma só mulher

               G
Se quer cinema eu sou par perfeito
                     D
Quer curtir balada, já tem seu parceiro
                   Em
Ou ficar em casa amando o dia inteiro
               C
Dividir comigo o seu brigadeiro

               G
E nessa vida agora somos dois

Três, quatro
     D
Quantos você quiser
             Em
A partir de hoje eu sou 
                   C
O homem de uma só mulher

G
Eu sosseguei
D
  Eu sosseguei
Em7
    Eu sosseguei
C           G
  Sosseguei

0 comentários

    mostrar mais comentários

    Conseguiu tocar?

    164tocaram10ainda não

    Grave um vídeo tocando Sosseguei e mande pra gente!

    00:00 / 00:00
    outros vídeos desta música
    repetirqualidadeautomática
    Outro vídeos desta música
      00:00 / 00:00
      automática
      Capítulos
      • Tocando a música
      • Dicas Iniciais / Equipamentos
      • Acordes da música
      • Tocando Introdução e Primeira Parte
      • Introdução - Parte 1 de 4
      • Introdução - Parte 2 de 4
      • Introdução - Parte 3 de 4
      • Introdução - Parte 4 de 4
      • Primeira Parte - Parte 1 de 4
      • Primeira Parte - Parte 2 de 4
      • Primeira Parte - Parte 3 de 4
      • Primeira Parte - Parte 4 de 4
      • Primeira Parte - Parte 4 de 4 (Variação)
      • Tocando a Segunda Parte
      • Tocando o Refrão
      • Ritmo do Refrão
      • Ritmo do Refrão Final
      • Tocando o Solo
      • Solo - Parte 1 de 3
      • Solo - Parte 2 de 3
      • Solo - Parte 3 de 3
      • Base do Solo
      • Encerramento
      • Ficha Técnica
      OK