Cifra Club

Louca de Saudade

Jorge e Mateus

Cifra: Principal
exibições 2.232.606
Tom: C
Tom: C                                                                                                                           Intro: C  Em7  F9  Fm
       C  Em7  F9/C  Fm

Parte 1 de 4

    C           Em7
E|-----x-----x------x-----x-----------------|
B|---1-x-1-1-x----3-x-3-3-x-----------------|
G|---0-x-0-0-x----0-x-0-0-x-----------------|
D|-----x-----x------x-----x-----------------|
A|-3---x-3---x------x-----x-----------------|
E|-----x-----x--0---x-0---x-----------------|
Parte 2 de 4
    F9            Fm
E|-------x-----x-------x--------------------|
B|-1---1-x-1-1-x-1---1-x---1-1-1------------|
G|-0---0-x-0-0-x-1---1-x---1-1-1-0----------|
D|---3---x-3---x---3---x-3-----3------------|
A|-------x-----x-------x--------------------|
E|-------x-----x-------x--------------------|
Parte 3 de 4
    C               Em7
E|-----x---------x-------x-----x------------|
B|---1-x---1h3-1-x-3---3-x-3-3-x------------|
G|---0-x---------x-----0-x-0-0-x------------|
D|-----x---------x-------x-----x------------|
A|-3---x-3-------x-------x-----x------------|
E|-----x---------x---0---x-0---x------------|
Parte 4 de 4
    F9/C              Fm
E|-------x---------x------------------------|
B|-1---1-x---1---1-x-----1------------------|
G|-0---0-x---0h2-0-x---1--------------------|
D|-----3-x---3---3-x-3----------------------|
A|---3---x-3-------x------------------------|
E|-------x---------x------------------------|


Primeira Parte:

 F9/C                 G
Se uma canção me lembrar
          F9/C         C
Troque o CD, não ouça mais
 F9/C                  G
Se um perfume me recordar
           F9/C           C   G
Troque de marca, não use mais

Parte 1 de 4

    F9/C               G
E|-----x---------x--------x-----x-----------|
B|---1-x---1---1-x------3-x-3-3-x-----------|
G|---0-x---0h2-0-x-0----0-x-0-0-x-0---------|
D|---3-x---3---3-x-0----0-x-0-0-x-0---------|
A|-3---x-3-------x--------x-----x-----------|
E|-----x---------x----3---x-3---x-----------|
Parte 2 de 4
    F9/C              C
E|-----x---------x-------x------------------|
B|---1-x---1---1-x-----1-x------------------|
G|---0-x---0h2-0-x-0---0-x-------0----------|
D|---3-x---3---3-x-0---2-x---0h2---0h2-0----|
A|-3---x-3-------x---3---x-3-3-----3--------|
E|-----x---------x-------x------------------|
Parte 3 de 4
    F9/C               G
E|-----x---------x--------x-----x-----------|
B|---1-x---1---1-x------3-x-3-3-x-----------|
G|---0-x---0h2-0-x-0----0-x-0-0-x-0---------|
D|---3-x---3---3-x-0----0-x-0-0-x-0---------|
A|-3---x-3-------x--------x-----x-----------|
E|-----x---------x----3---x-3---x-----------|
Parte 4 de 4
    F9/C              C       G
E|-----x---------x-------x------------------|
B|---1-x---1---1-x-----1-x------------------|
G|---0-x---0h2-0-x-0---0-x-0-----0----------|
D|---3-x---3---3-x-0---2-x-0---0---0--------|
A|-3---x-3-------x---3---x------------------|
E|-----x---------x-------x---3--------------|

Pré-refrão:

              F9/C                C
Já que me trocou por um outro alguém
 G      F9/C              G  Am7  G/B
Substituir é o que te convém

Parte 1 de 2

    F9/C              C       G
E|-----x---------x-------x-------x----------|
B|---1-x---1---1-x-----1-x-----3-x----------|
G|---0-x---0h2-2-x-0---0-x-0---0-x-0--------|
D|---3-x---3---3-x-0---3-x-0---0-x-0--------|
A|-3---x-3-------x---3---x-------x----------|
E|-----x---------x-------x---3---x----------|
Parte 2 de 2
    F9/C             G              Am7 G/B
E|-----x---------x-------x-----x------------|
B|---1-x---1---1-x-----3-x-3-3-x-0--1--3----|
G|---0-x---0h2-2-x-0---0-x-0-0-x-0--0--0----|
D|---3-x---3---3-x-0---0-x-0-0-x-0----------|
A|-3---x-3-------x-------x-----x----0--2-5\-|
E|-----x---------x---3---x-3---x-3----------|

Refrão:

                  C               Em7
Mas quando o coração não me enxergar
               F9/C
Vai te deixar louca de saudade
 Fm/C
Louca de saudade
       C              Em7
O coração vai me desejar
             F9/C
E te deixar louca de saudade
 Fm/C
Louca de saudade
          Dm
Eu quero ver então
    G
Se vai poder trocar de coração

 Parte 1 de 3

    C             Em7
E|-----x-----x--------x-----x---------------|
B|---1-x-1-1-x------3-x-3-3-x---------------|
G|---0-x-0-0-x-0----0-x-0-0-x-0-------------|
D|---2-x-2-2-x-0----0-x-0-0-x-0-------------|
A|-3---x-3---x--------x-----x---------------|
E|-----x-----x----0---x-0---x---------------|
Parte 2 de 3
   F9/C           Fm/C
E|-----x-----x--------x-----x---------------|
B|---1-x-1-1-x------1-x-1-1-x---------------|
G|---0-x-0-0-x-0----1-x-1-1-x-0-------------|
D|---3-x-3-3-x-0----3-x-3-3-x-0-------------|
A|-3---x-3---x----3---x-3---x---------------|
E|-----x-----x--------x-----x---------------|
Parte 1 de 3
    C             Em7
E|-----x-----x--------x-----x---------------|
B|---1-x-1-1-x------3-x-3-3-x---------------|
G|---0-x-0-0-x-0----0-x-0-0-x-0-------------|
D|---2-x-2-2-x-0----0-x-0-0-x-0-------------|
A|-3---x-3---x--------x-----x---------------|
E|-----x-----x----0---x-0---x---------------|
Parte 2 de 3
   F9/C           Fm/C
E|-----x-----x--------x-----x---------------|
B|---1-x-1-1-x------1-x-1-1-x---------------|
G|---0-x-0-0-x-0----1-x-1-1-x-0-------------|
D|---3-x-3-3-x-0----3-x-3-3-x-0-------------|
A|-3---x-3---x----3---x-3---x---------------|
E|-----x-----x--------x-----x---------------|
Parte 3 de 3
    Dm             G
E|---1-x---1-1-x--3-------------------------|
B|---3-x---3-3-x--3-------------------------|
G|---2-x---2-2-x--0-------------------------|
D|-0---x-0-----x--0-------------------------|
A|-----x-------x--2-------------------------|
E|-----x-------x--3-------------------------|

Base Solo: C  Em7  F9/C  Fm/C

Parte 1 de 2
    C             Em7
E|-----x-----x--------x-----x---------------|
B|---1-x-1-1-x------3-x-3-3-x---------------|
G|---0-x-0-0-x-0----0-x-0-0-x-0-------------|
D|---2-x-2-2-x-0----0-x-0-0-x-0-------------|
A|-3---x-3---x--------x-----x---------------|
E|-----x-----x----0---x-0---x---------------|
Parte 2 de 2
   F9/C           Fm/C
E|-----x-----x------------------------------|
B|---1-x-1-1-x----1-------------------------|
G|---0-x-0-0-x-0--1-------------------------|
D|---3-x-3-3-x-0--3-------------------------|
A|-3---x-3---x----3-------------------------|
E|-----x-----x------------------------------|
  
Segunda Parte:

 F9/C                  G
Se algum lugar me lembrar
             F9/C          C
Troque de rota, não passe lá
 F9/C                G
Se um filme me recordar
            F9/C           C  G
Troque o canal, é só desligar

Parte 1 de 4

    F9/C           G
E|-----x-----x--------x-----x---------------|
B|---1-x-1-1-x------3-x-3-3-x---------------|
G|---0-x-0-0-x-0----0-x-0-0-x-0-------------|
D|---3-x-3-3-x-0----0-x-0-0-x-0-------------|
A|-3---x-3---x--------x-----x---------------|
E|-----x-----x----3---x-3---x---------------|
Parte 2 de 4
    F9/C           C
E|-----x-----x--------x-----x---------------|
B|---1-x-1-1-x------1-x-1-1-x---------------|
G|---0-x-0-0-x-0----0-x-0-0-x-0-------------|
D|---3-x-3-3-x-0----2-x-2-2-x-0-------------|
A|-3---x-3---x----3---x-3---x---------------|
E|-----x-----x--------x-----x---------------|
Parte 3 de 4
    F9/C           G
E|-----x-----x--------x-----x---------------|
B|---1-x-1-1-x------3-x-3-3-x---------------|
G|---0-x-0-0-x-0----0-x-0-0-x-0-------------|
D|---3-x-3-3-x-0----0-x-0-0-x-0-------------|
A|-3---x-3---x--------x-----x---------------|
E|-----x-----x----3---x-3---x---------------|
Parte 4 de 4
    F9/C           C       G
E|-----x-----x--------x-------x-------------|
B|---1-x-1-1-x------1-x-----3-x-------------|
G|---0-x-0-0-x-0----0-x-0---0-x-0-----------|
D|---3-x-3-3-x-0----2-x-0---0-x-0-----------|
A|-3---x-3---x----3---x-------x-------------|
E|-----x-----x--------x---3---x-------------|

Pré-refrão:

              F9/C                C
Já que me trocou por um outro alguém
 G      F9/C              G  Am7  G/B
Substituir é o que te convém

Refrão:

                  C               Em7
Mas quando o coração não me enxergar
               F9/C
Vai te deixar louca de saudade
 Fm/C
Louca de saudade
       C              Em7
O coração vai me desejar
             F9/C
E te deixar louca de saudade
 Fm/C
Louca de saudade
          Dm
Eu quero ver então
    G
Se vai poder trocar
          Dm
Eu quero ver então
    G                       C  A
Se vai poder trocar de coração

Refrão Modulação:

                  D               F#m7
Mas quando o coração não me enxergar
               G
Vai te deixar louca de saudade
 Gm7
Louca de saudade
       D              F#m7
O coração vai me desejar
             G
E te deixar louca de saudade
 Gm7
Louca de saudade
          Em
Eu quero ver então
    A
Se vai poder trocar
          Em
Eu quero ver então
    A
Se vai poder trocar de coração
Parte 1 de 5

    C             Em7
E|-----x-----x--------x-----x---------------|
B|---1-x-1-1-x------3-x-3-3-x---------------|
G|---0-x-0-0-x-0----0-x-0-0-x-0-------------|
D|---2-x-2-2-x-0----0-x-0-0-x-0-------------|
A|-3---x-3---x--------x-----x---------------|
E|-----x-----x----0---x-0---x---------------|
Parte 2 de 5
   F9/C           Fm/C
E|-----x-----x--------x-----x---------------|
B|---1-x-1-1-x------1-x-1-1-x---------------|
G|---0-x-0-0-x-0----1-x-1-1-x-0-------------|
D|---3-x-3-3-x-0----3-x-3-3-x-0-------------|
A|-3---x-3---x----3---x-3---x---------------|
E|-----x-----x--------x-----x---------------|
Parte 1 de 5
    C             Em7
E|-----x-----x--------x-----x---------------|
B|---1-x-1-1-x------3-x-3-3-x---------------|
G|---0-x-0-0-x-0----0-x-0-0-x-0-------------|
D|---2-x-2-2-x-0----0-x-0-0-x-0-------------|
A|-3---x-3---x--------x-----x---------------|
E|-----x-----x----0---x-0---x---------------|
Parte 2 de 5
   F9/C           Fm/C
E|-----x-----x--------x-----x---------------|
B|---1-x-1-1-x------1-x-1-1-x---------------|
G|---0-x-0-0-x-0----1-x-1-1-x-0-------------|
D|---3-x-3-3-x-0----3-x-3-3-x-0-------------|
A|-3---x-3---x----3---x-3---x---------------|
E|-----x-----x--------x-----x---------------|
Parte 3 de 5
    Dm             G
E|---1-x---1-1-x----3-----------------------|
B|---3-x---3-3-x----3-----------------------|
G|---2-x---2-2-x----0-----------------------|
D|-0---x-0-----x----0-----------------------|
A|-----x-------x----2-----------------------|
E|-----x-------x--3-------------------------|
Parte 4 de 5
    Dm             G Am7 G/B
E|---1-x---1-1-x----------------------------|
B|---3-x---3-3-x--0--3--3-------------------|
G|---2-x---2-2-x--0--0--0-------------------|
D|-0---x-0-----x--0-------------------------|
A|-----x-------x-----0--2--5----------------|
E|-----x-------x--3-------------------------|
Parte 5 de 5
   C             A
E|-----x-----x------------------------------|
B|---1-x-1-1-x--2--2-2-2-2-2-2-2------------|
G|---0-x-0-0-x--2--2-2-2-2-2-2-2------------|
D|---2-x-2-2-x--2--2-2-2-2-2-2-2------------|
A|-3---x-3---x--0--0-0-0-0-0-0-0------------|
E|-----x-----x------------------------------|

( D  F#m7  G  Gm7  D )

Solo Introdução:

Parte 1 de 3
E|----------------------------------------------------|
B|----------------------------------------------------|
G|-5-5-5--5/7-7--9-7/9~--9h10-9-9-7-7~----------------|
D|----------------------------------------------------|
A|----------------------------------------------------|
E|----------------------------------------------------|
Parte 2 de 3
E|----------------------------------------------------|
B|-------------------------8-8-8h9-8-6----------------|
G|-5-5-7-5-7/10-9-9-7-7-5--------------5-7/9~---------|
D|----------------------------------------------------|
A|----------------------------------------------------|
E|----------------------------------------------------|
Parte 3 de 3
E|----------------------------------------------------|
B|-8--------------------------------------------------|
G|---9\7-5---5h7~--7/9-5~--7---5----------------------|
D|---------7-----------------7---5/6~-----------------|
A|----------------------------------------------------|
E|----------------------------------------------------|

Solo Refrão:
Parte 1 de 2
E|----------------------------------------------------|
B|----------------------------------------------------|
G|-5-5-5--5/7-7--9-7/9~--9h10-9-9-7-7~----------------|
D|----------------------------------------------------|
A|----------------------------------------------------|
E|----------------------------------------------------|
Parte 2 de 2 
E|----------------------------------------------------|
B|-------------------------8-8-8h9-8-6~---------------|
G|-5-5-7-5-7/10-9-9-7-7-5-----------------------------|
D|----------------------------------------------------|
A|----------------------------------------------------|
E|----------------------------------------------------|

Solo Modulação:
E|----------------------------------------------------|
B|---------5------------------------------------------|
G|-5-5-5-7---6-7-9------------------------------------|
D|----------------------------------------------------|
A|----------------------------------------------------|
E|----------------------------------------------------|

Solo Final:
Parte 1 de 3
E|----------------------------------------------------|
B|----------------------------------------------------|
G|-7-7-7-9-9-11-9h11~--11/12-11-11-9-9~---------------|
D|----------------------------------------------------|
A|----------------------------------------------------|
E|----------------------------------------------------|
Parte 2 de 3
E|----------------------------------------------------|
B|----------------------------------------------------|
G|-7-7-9-7-9/12-11-11-9-9-7---------------------------|
D|----------------------------------------------------|
A|----------------------------------------------------|
E|----------------------------------------------------|
Parte 3 de 3
E|----------------------------------------------------|
B|-10-10-10h11~-10~-~8~--7h8p7\5~--2-3----------------|
G|-------------------------------------2/4~-----------|
D|----------------------------------------------------|
A|----------------------------------------------------|
E|----------------------------------------------------|

0 comentários

    mostrar mais comentários
    00:00 / 00:00
    outros vídeos desta música
    repetirqualidadeautomática
    Outro vídeos desta música
      00:00 / 00:00
      automática
      Capítulos
      • Tocando a música
      • Dicas Iniciais / Equipamentos
      • Acordes da Introdução
      • Tocando a Introdução
      • Introdução - Parte 1 de 4
      • Introdução - Parte 2 de 4
      • Introdução - Parte 3 de 4
      • Introdução - Parte 4 de 4
      • Acordes da Primeira Parte
      • Tocando a Primeira Parte
      • Primeira Parte - Parte 1 de 4
      • Primeira Parte - Parte 2 de 4
      • Primeira Parte - Parte 3 de 4
      • Primeira Parte - Parte 4 de 4
      • Acordes do Pré-Refrão
      • Tocando o Pré-Refrão
      • Pré-Refrão - Parte 1 de 2
      • Pré-Refrão - Parte 2 de 2
      • Acordes do Refrão
      • Tocando o Refrão
      • Refrão - Parte 1 de 3
      • Refrão - Parte 2 de 3
      • Refrão - Parte 3 de 3
      • Tocando o Solo
      • Base do Solo - Parte 1 de 2
      • Base do Solo - Parte 2 de 2
      • Tocando a Segunda Parte
      • Segunda Parte - Parte 1 de 4
      • Segunda Parte - Parte 2 de 4
      • Segunda Parte - Parte 3 de 4
      • Segunda Parte - Parte 4 de 4
      • Acordes do Refrão (repetição)
      • Tocando o Refrão (repetição)
      • Refrão (repetição) - Parte 3 de 5
      • Refrão (repetição) - Parte 4 de 5
      • Refrão (repetição) - Parte 5 de 5
      • Acordes do Refrão
      • Tocando o Refrão
      • Ritmo do Refrão
      • Tocando o Solo da Introdução
      • Solo Introdução - Parte 1 de 3
      • Solo Introdução - Parte 2 de 3
      • Solo Introdução - Parte 3 de 3
      • Tocando Solo Refrão
      • Solo Refrão - Parte 1 de 2
      • Solo Refrão - Parte 2 de 2
      • Tocando o Solo Final
      • Solo Final - Parte 1 de 3
      • Solo Final - Parte 2 de 3
      • Solo Final - Parte 3 de 3
      • Encerramento
      • Fica Técnica
      OK