Cifra Club

Fogueira

Jorge e Mateus

Cifra: Principal (violão e guitarra)
exibições 590.496
Tom: D
[Intro] D  A/C#  Bm  F#m  G  D
        D  A/C#  Bm  F#m  G  D 
        D  A/C# 

E|-----------------------2------------------------------|
B|-----------------3-3-------0h2-2-2-0------------------|
G|-----------4-4-4---------------------2-4-4-4-4-2-4-2--|
D|----0-------------------------------------------------|
A|-0h2--4-2---------------------------------------------|
E|------------------------------------------------------|

                        H.N.
E|-----------------------7------------------------------|
B|-----------------3-3---7---0h2-2-2-0------------------|
G|-----------4-4-4---------------------2-4-4-4-4-2-4-2--|
D|------------------------------------------------------|
A|---5-4-2----------------------------------------------|
E|------------------------------------------------------|

[Primeira Parte]

 Bm               F#m
Não para de chover
                 G           D       A
E eu preciso do sol pra lembrar seu calor
 Bm             F#m
Se eu te magoei
                     G        D     A
Desculpa estou aprendendo o que é amor
 
[Segunda Parte]

 F#m               Bm
Nas noites mais escuras
                 G               D  F#m
Nos bares, nas ruas, tudo é solidão
                    Bm
Não me deixe sozinho
            G                      A
Falta de carinho rima com nova paixão

[Refrão]

 D               A
Eu quero o seu amor
                    G               D D4 D
Eu quero ser seu homem, se você quiser
                  A
Se eu tiver seu amor
             G                  D D4 D
Juro não preciso amar outra mulher
          G      A                    D
Não deixe apagar,  a fogueira do meu coração

[Solo] D  A/C#  Bm  F#m  G  D
       D  A/C#  Bm  F#m  G  D 
       D  A/C# 

E|-----------------------2------------------------------|
B|-----------------3-3-------0h2-2-2-0------------------|
G|-----------4-4-4---------------------2-4-4-4-4-2-4-2--|
D|----0-------------------------------------------------|
A|-0h2--4-2---------------------------------------------|
E|------------------------------------------------------|

                        H.N.
E|-----------------------7------------------------------|
B|-----------------3-3---7---0h2-2-2-0------------------|
G|-----------4-4-4---------------------2-4-4-4-4-2-4-2--|
D|------------------------------------------------------|
A|---5-4-2----------------------------------------------|
E|------------------------------------------------------|

[Primeira Parte]

 Bm               F#m
Não para de chover
                 G           D       A
E eu preciso do sol pra lembrar seu calor
 Bm             F#m
Se eu te magoei
                     G        D     A
Desculpa estou aprendendo o que é amor
 
[Segunda Parte]

 F#m               Bm
Nas noites mais escuras
                 G               D  F#m
Nos bares, nas ruas, tudo é solidão
                    Bm
Não me deixe sozinho
            G                      A
Falta de carinho rima com nova paixão

[Refrão]

 D               A
Eu quero o seu amor
                    G               D D4 D
Eu quero ser seu homem, se você quiser
                  A
Se eu tiver seu amor
             G                  D D4 D
Juro não preciso amar outra mulher
          G      A                    D
Não deixe apagar,  a fogueira do meu coração

 D               A
Eu quero o seu amor
                    G               D D4 D
Eu quero ser seu homem, se você quiser
                  A
Se eu tiver seu amor
             G                  D D4 D
Juro não preciso amar outra mulher
          G      A                    D
Não deixe apagar,  a fogueira do meu coração

 D               A
Eu quero o seu amor
                    G               D D4 D
Eu quero ser seu homem, se você quiser
                  A
Se eu tiver seu amor
             G                  D D4 D
Juro não preciso amar outra mulher
          G      A                    D
Não deixe apagar,  a fogueira do meu coração
          G      A                    D
Não deixe apagar,  a fogueira do meu coração

[Final] D  D4  D  D4
Acordes para:
    Composição: Jorge Alves Colaboração e revisão:

    0 comentários

    mostrar mais comentários

    Conseguiu tocar?

    53 tocaram 2 ainda não

    Grave um vídeo tocando Fogueira e mande pra gente!

    00:00 / 00:00
    outros vídeos desta música
    repetir qualidade Automático
    Outros vídeos desta música
    00:00 / 00:00
    Automático
    OK