Cifra Club

Aprenda

Pra Nunca Dizer Adeus

Jorge & Mateus

Cifra: Versão 2 (violão e guitarra)
Já pensou em usar uma coleção de roupas do Cifra Club? Responda as perguntas abaixo e nos ajude nessa missão! →
tom: E
Intro:
E|-----------------------------------------------------|
B|---2---2-4h5--4--2-2--0-0----------------------------|
G|-----2----------------------------2-1-2-2h4----------|
D|-----------------------------------------------------|
A|-----------------------------------------------------|
E|-----------------------------------------------------|

E|------------------------------------------------------|
B|---2---2-4h5--4--2-2--0-0-----------------------------|
G|-----2----------------------------2-1-2-2h4-6---------|
D|------------------------------------------------------|
A|------------------------------------------------------|
E|------------------------------------------------------|

E|----------------------------2-2h4-2-0-----------------|
B|---2---2--4h5--4--4-5----------------4-2-0------------|
G|-----2------------------------------------------------|
D|------------------------------------------------------|
A|------------------------------------------------------|
E|------------------------------------------------------|

E|--------------------------------------------------------------------1----|
B|---5-5-5--4--2--0----5--4--2--0--0h2-0-----------------------------------|
G|--------------------------------------------------2--1-------------------|
D|----------------------------------------------------------------7h9------|
A|-------------------------------------------------------------------------|
E|-------------------------------------------------------------------------|

E                  B                C#m
Para mim o teu sorriso é como as estrelas
A                 B               E
Para mim o teu olhar tem a luz da lua
     A          B            C#m        G#m
Se pudesse eu daria todo universo pra te amar
  A          B             A G#m F#m E B7
Ó princesa, por favor não vá

E                 B                       C#m
É tão grande essa paixão que tenho no meu peito
   A           B               E
Tanto amor guardado no meu coração
   A                 B                 C#m           G#m
Quantas vezes for preciso gritarei ao mundo que eu te amo
   A        B                A G#m F#m E
E você vai se orgulhar de mim

A              B          C#m
Vem amor, me abra de uma vez
A             B             E
Arranque todos os segredos meus
A          B             C#m             G#m
Ocupe a solidão de um coração que te pertence
A              B          A G#m F#m E  E7
Pra nunca mais me dizer adeus
Solo:
E|----------------------------2-2h4-2-0-----------------|
B|---2---2--4h5--4--4-5----------------4-2-0------------|
G|-----2------------------------------------------------|
D|------------------------------------------------------|
A|------------------------------------------------------|
E|------------------------------------------------------|

E|--------------------------------------------------------------------1----|
B|---5-5-5--4--2--0----5--4--2--0--0h2-0-----------------------------------|
G|--------------------------------------------------2--1-------------------|
D|----------------------------------------------------------------7h9------|
A|-------------------------------------------------------------------------|
E|-------------------------------------------------------------------------|

E                 B                    C#m
Mesmo que você não queira mais saber de mim
       A           B                  E
Vou tentando convencê-la o quanto te amo
  A               B                 C#m           G#m
Mesmo que você recuse ouvir a minha voz eu não desisto
A           B     A G#m F#m E
Vou gritar te amo demais

A              B          E
Vem amor, me abra de uma vez
A             B             E
Arranque todos os segredos meus
A          B             C#m            G#m
Ocupe a solidão de um coração que te pertence
A              B          A G#m F#m E E7
Pra nunca mais me dizer adeus

A              B          E
Vem amor, me abra de uma vez
A             B             E
Arranque todos os segredos meus
A          B             C#m            G#m
Ocupe a solidão de um coração que te pertence
A              B          A G#m F#m E
Pra nunca mais me dizer adeus

A              B        A G#m F#m E
Pra nunca mais me dizer adeus
Compositor não encontrado.
Colaboração e revisão:
  • Cowboy Trecho
  • Lucas Alves
3.198 exibições
    • ½ Tom
    • A
    • Bb
    • B
    • C
    • Db
    • D
    • Eb
    • E
    • F
    • F#
    • G
    • Ab
  • Adicionar à lista

    0 comentários

    Ver todos os comentários
    00:00 / 00:00
    Outros vídeos desta música
    Repetir Qualidade Automático
    Outros vídeos desta música
    00:00 / 00:00
    Automático

    Cifra Club Pro

    Aproveite o Cifra Club com benefícios exclusivos e sem anúncios
    Cifra Club Pro
    Aproveite o Cifra Club com benefícios exclusivos e sem anúncios
    OK