Cifra Club

Se Eu Chorar

Jorge e Mateus

Cifra: Principal
exibições 576.442
Tom: F
Intro:
E|----8--8-8--8-----------------------------------
B|----6--6-6--6--------5-3------------------------
G|----5-------5-------------5-3--55/7--5--7/10~~--
D|------------------------------------------------
A|------------------------------------------------
E|------------------------------------------------

F        C          Dm        Bb
Pra viver eu só preciso de você
F           C           Dm            Bb
Pra ser feliz eu só preciso te merecer
Gm                            C
Pra ser melhor tem que acontecer de novo em outra vida
Gm                         C
Pra não chorar vou cuidar tanto desse amor

            Bb
E se eu chorar, vai ser de saudade
             C
Eu vou te ligar quando ela bater
   Gm                 Gm/F
Às quatro, cinco da manhã
                      C
Falar que eu sou seu fã, e só liguei pra dizer

                  F                      C
Que a gente se encaixa, é a tampa e a panela
              Dm                      Bb
É a chama e a vela, é a cama e o colchão
         Gm                Gm/F
E que o mal de quem ama é saudade
            C
Você é a metade do meu coração
            A4 A
E que eu sou o amor da sua vida
             Bb             F/A
Eu sou água doce pra você beber
           Gm               Gm/F
E que eu quero ouvir da sua boca
            C
Que você é louca por mim
         F
Como eu sou por você

Solo: F C Dm Bb F C Dm 
      Bb C# F# 
E|----------------------------------------------------|
B|--/6-6-6--5--5--6--5--------------------------------|
G|--/7-7-7--5--5--7--5---5h7--5-----5--5h7~--5-3-5~~--|
D|-------------------------------7--------------------|
A|----------------------------------------------------|
E|----------------------------------------------------|

E|----------------------------------------------------|
B|--/6-6-6--5--5--6--8--------------------------------|
G|--/7-7-7--5--5--7--9----10-9-7----------7~~---6~~---|
D|-------------------------------10-8-10--------------|
A|----------------------------------------------------|
E|----------------------------------------------------|

Segunda Parte:
F#      C#           D#m       B
Pra viver eu só preciso de você
F#         C#           D#m           B
Pra ser feliz eu só preciso te merecer
G#m                           C#
Pra ser melhor tem que acontecer de novo em outra vida
G#m                        C#
Pra não chorar vou cuidar tanto desse amor

          B
E se eu chorar, vai ser de saudade
            C#
Eu vou te ligar quando ela bater
    G#m
Às quatro, cinco da manhã
                     C#
Falar que eu sou seu fã, e só liguei pra dizer

                   F#                    C#
Que a gente se encaixa, é a tampa e a panela
               D#m                    B
É a chama e a vela, é a cama e o colchão
         G#m
E que o mal de quem ama é saudade
            C#
Você é a metade do meu coração
            A#7
E que eu sou o amor da sua vida
             B
Eu sou água doce pra você beber
         G#m
E que eu quero ouvir da sua boca
             C#
Que você é louca por mim
         F#
Como eu sou por você
Acordes para:

    0 comentários

      mostrar mais comentários

      Conseguiu tocar?

      44tocaram1ainda não

      Grave um vídeo tocando Se Eu Chorar e mande pra gente!

      00:00 / 00:00
      outros vídeos desta música
      repetirqualidadeautomática
      Outro vídeos desta música
        00:00 / 00:00
        automática
        OK