Cifra Club

Sei

José Uéber Esteves Júnior

Cifra: Principal (violão e guitarra)
tom: Ab (forma dos acordes no tom de G) Capotraste na 1ª casa
Intro 2x: G  D/F#  Em  C9  D9

G
 Sei que mesmo sem você
C9                   G/B  Am
 As estrelas vão brilhar,
             Em
 A Lua vai aparecer
G              D
 O Sol vai nascer. (vou)

Pré-Refrão:
G                      D/F#  Em
 Vou novamente me apaixonar
                               C9
 O mundo não vai parar de girar
                     G/B              Am
 Os sonhos não vão deixar de existir.
          D
 Sei que mesmo sem você,

Refrão 2x:
G     D/F#      Em
 Vou ter que viver
                C9
 Vou ter que sonhar
                 D9
 Vou ter que crescer.
Solo:
     G   D/F#     Em          C9      D9
E|-------------------------------------------------------|
A|-------------------------------------------------------|
D|-------------------------------------------------------|
G|-----------------------------------8-10----------------|
B|--9--9------11-9---9------9/11-9--------9-11-9-11-9----|
E|-------11-8----------11-8---------------------------8--|
     G   D/F#     Em          C9      D9                Am
E|----------------------------------------------------------|
A|----------------------------------------------------------|
D|----------------------------------------------------------|
G|-----------------------------------8-10-------------------|
B|--9--9---------------------11-9---------9-11-9-11---9/11--|
E|-------11-8--11-11/13-11-8------------------------8-------|

Am            Em
 O tempo não volta,
G             D
 O tempo não para,
Am G/B       C9
 O tempo só passa,
G                G
 A fisionomia se muda,
Am G/B       C9
 O olhar acompanha. Sei que,

G                D/F#  Em
 Podem anos se passar,
                               Am  G/B  C9
 Eu sei que nunca vou conseguir
                D9
 Deixar de te amar.(vou)

Pré-Refrão:
G                      D/F#  Em
 Vou novamente me apaixonar
                               C9
 O mundo não vai parar de girar
                     G/B              Am
 Os sonhos não vão deixar de existir.
          D
 Sei que mesmo sem você,

Refrão 2x:
G     D/F#      Em
 Vou ter que viver
                C9
 Vou ter que sonhar
                 D9
 Vou ter que crescer.

Refrão: (Nessa parte tem que cantar uma oitava acima)
G     D/F#      Em
 Vou ter que viver
                C9
 Vou ter que sonhar
                 D9
 Vou ter que crescer.
G     D/F#      Em
         que Viver
                C9
         que Sonhar
                 D9
         que Crescer
Solo:
     G   D/F#     Em          C9      D9
E|-------------------------------------------------------|
A|-------------------------------------------------------|
D|-------------------------------------------------------|
G|-----------------------------------8-10----------------|
B|--9--9------11-9---9------9/11-9--------9-11-9-11-9----|
E|-------11-8----------11-8---------------------------8--|
     G   D/F#     Em          C9      D9               G
E|-------------------------------------------------------|
A|-------------------------------------------------------|
D|-------------------------------------------------------|
G|-----------------------------------8-10----------------|
B|--9--9---------------------11-9---------9-11-9-11---9--|
E|-------11-8--11-11/13-11-8------------------------8----|
Composição de José Uéber Esteves Júnior
Colaboração e revisão:
  • José Jr
66 exibições
    • ½ Tom
    • A
    • Bb
    • B
    • C
    • Db
    • D
    • Eb
    • E
    • F
    • F#
    • G
    • Ab
  • Adicionar à lista

    0 comentários

    Ver todos os comentários

    Conseguiu tocar?

    0 Tocaram 0 Ainda não

    Grave um vídeo tocando Sei e nos envie!

    00:00 / 00:00
    Outros vídeos desta música
    Repetir Qualidade Automático
    Outros vídeos desta música
    00:00 / 00:00
    Automático

    Cifra Club Pro

    Aproveite o Cifra Club com benefícios exclusivos e sem anúncios
    Cifra Club Pro
    Aproveite o Cifra Club com benefícios exclusivos e sem anúncios
    OK