Cifra Club

Right To Be Wrong

Joss Stone

Cifra: Principal
exibições 61.111
Tom: D
Intro 2x: D  Bm  A  G

Solo de introdução:
E|--------------------------------------------------------------|
B|--------------------------------------------------------------|
G|--------------------------------------7-9.-9~~~---9bh--r-9p7--|
D|----------------------------7-9~~~--9-------------------------|
A|---------5-7-5~~~---5/7-7h9-----------------------------------|
E|-----5/7------------------------------------------------------|

E|---------------------------------------------------------|
B|--------------------11bh--r-7----------------------------|
G|--------------------------------9/11--11\9---9bh--r-9p7--|
D|-9p7-9-9-9p7\--------------------------------------------|
A|--------------5------------------------------------------|
E|---------------------------------------------------------|

Verso 1:
                       A        G
I've got a right to be wrong
E|--------------------------------9.-8.-x-7.--5----------------|
B|--------------------------------------------5----------------|
G|---------------------------9/11------------------------------|
D|-------------------------------------------------------------|
A|-------------------------------------------------------------|
E|-------------------------------------------------------------|

                 D
My mistakes will make me strong                    I'm steppin out
E|----------------------------------------------------------------|
B|---------------------------------------------------10~---12~----|
G|--------------------------------------------9.-7----------------|
D|-------------------------------------7h9-7.---------------------|
A|---------------------------------7/9----------------------------|
E|----------------------------------------------------------------|

          A            G
into the great unknown                   I'm feeling wings though
E|----------------------------------------------------------------|
B|----------------------------------------------------------------|
G|-----------------------9p7---7-9/11-----------------------------|
D|---------------------------9--------9~~~------------------------|
A|----------------------------------------------------------------|
E|----------------------------------------------------------------|

   D             Bm                                       A   G
I've never flown                   I've got a mind of my own
E|------------------------------------------------------------|
B|-----------------11b-9--------------------------------------|
G|-----------------------9p7-9br-7~~--------------------------|
D|------------------------------------------------------------|
A|------------------------------------------------------------|
E|------------------------------------------------------------|

                                                D
                          I'm flesh and blood to the bone
E|----------------------------------------------------------|
B|----------------------------------------------------------|
G|-9bh-9-9-9-9-9r-p7-7-7~~\---------------------------------|
D|----------------------------------------------------------|
A|----------------------------------------------------------|
E|----------------------------------------------------------|

                    Bm                                      A      G
I'm not made of stone                    Got a right to be wrong
E|----------------------------------------------------------------|
B|----------------11bh-11-11-11r-11\9-9-9-9\7-7-7-7\5-5-5-5\3-3---|
G|--------------------------------------------------------------2-|
D|----------------------------------------------------------------|
A|----------------------------------------------------------------|
E|----------------------------------------------------------------|

                                              D
                       so just leave me alone
E|----------------------------------------------|
B|----------------------------------------------|
G|-------9-9h10p9\7-----------------------------|
D|-----7------------9\--------------------------|
A|-7-9------------------------------------------|
E|----------------------------------------------|

Refrão:
                                            A
                    I've got a right to be wrong    I've been down
E|-----------------------------------------------------------------|
B|-------------------------9-10~~--------------------12-10~~-------|
G|---------9p7-----7~~---------------------------------------------|
D|-------------9-7-------------------------------------------------|
A|-----------------------------------------------------------------|
E|-----------------------------------------------------------------|

      G                                 D
 too long            I've got to break free        so that I can
E|---------10h12-10~~-----------------------10~------------------|
B|----------------------------------------------12.--------------|
G|---------------------------------------------------------------|
D|---------------------------------------------------------------|
A|---------------------------------------------------------------|
E|---------------------------------------------------------------|

          Bm                              A
 finally breathe  I've got a right to be wrong  got to sing my
E|-------------------------------------------------------------|
B|----------10.--------------------10-12-10--------------------|
G|-------11---------------------11-----------------------------|
D|-------------------------------------------------------------|
A|-------------------------------------------------------------|
E|-------------------------------------------------------------|

      G                                            D
 own song               I might be singing out of key
E|------------------------------------------------------|
B|--------7-10------------------------------------------|
G|-------------9p7---7~~--------------------------------|
D|-----------------9----------------9.-9\7--------------|
A|-----------------------------------------9\7-5--------|
E|------------------------------------------------------|

                        Bm                           A     G
 but it sure feels good to me   I got a right to be wrong
E|-------------------------------12~~--10~-----7h9--------|
B|--------------7-10-------------------------------7.-----|
G|---------7-9.------9p7---7~~----------------------------|
D|-----7h9---------------9--------------------------------|
A|-7/9----------------------------------------------------|
E|--------------------------------------------------------|


               so just leave me alone
E|-------------------------------------------|
B|-------------------------------------------|
G|-9p7---7-9---------------------------------|
D|-----9-----9\------------------------------|
A|-------------------------------------------|
E|-------------------------------------------|

Ponte:

 A                                G
 You're entitled to your opinion  but it's really my decision
E|-----------------------12b---10~~---------------------------|
B|------------------------------------------------------------|
G|------------------------------------------------9p7---------|
D|------------------------------------------------------------|
A|------------------------------------------------------------|
E|------------------------------------------------------------|

 D                                           Bm
 I can't turn back I'm on a mission  If you care don't you dare
E|--------------------------------10.--------------------10.----|
B|--------7-10.------------10/12------------------10/12---------|
G|--------------------------------------------------------------|
D|--------------------------------------------------------------|
A|--------------------------------------------------------------|
E|--------------------------------------------------------------|

                    A                                G
 blur my vision    Let me bee all that I can be  Don't
E|-pb13r-12----10~~--12b-r-----------------------------|
B|----------12-----------------------------------------|
G|-----------------------------------------------------|
D|-----------------------------------------------------|
A|-----------------------------------------------------|
E|-----------------------------------------------------|

                            D
 smother me with negativity  Whatever's out there waiting for me
E|-14.-14.-14\12-12h14-10~~--------------------10.-10/12---------|
B|---------------------------------------10h12-------------------|
G|---------------------------------------------------------------|
D|---------------------------------------------------------------|
A|---------------------------------------------------------------|
E|---------------------------------------------------------------|

 A
 I'm gonna to face it willingly
E|-pb12-r-12-10-------------------------------------|
B|--------------10-12-10---------10--10--10--10--10-|
G|--------------------------------7---7---7---7---7-|
D|--------------------------------9---9---9---9---9-|
A|--------------------------------------------------|
E|--------------------------------------------------|

Verso 2

                     A        G
 I've got a right to be wrong                My mistakes will
E|------------------------------------------------------------|
B|------------------------------------------------------------|
G|-----------------------------7-9-9b-r-7-9~~-----------------|
D|------------------------------------------------------------|
A|------------------------------------------------------------|
E|------------------------------------------------------------|


  D             Bm
 make me strong                I'm stepping out into the
E|-------------------------------------------------------|
B|--------------12-10------------------------------------|
G|--------------------9p7-9-7~~--------------------------|
D|-------------------------------------------------------|
A|-------------------------------------------------------|
E|-------------------------------------------------------|

  A            G                                  D              Bm
 great unknown          I'm feeling wing though I've never flown
E|-13b-----------10h12p10----------------------------------------|
B|---------------------------------------------------------------|
G|---------------------------------------------------------------|
D|---------------------------------------------------------------|
A|---------------------------------------------------------------|
E|---------------------------------------------------------------|

                                        A   G
                  I've got a mind of my own
E|-14.-14.-12.-10--------------------------------------------|
B|-15.-15.-14.-12-----------------------------------------8.-|
G|-------------------------------------------9b-r-----7/9----|
D|-----------------------------------------------------------|
A|-----------------------------------------------------------|
E|-----------------------------------------------------------|

                   D                               Bm
 flesh and blood to the bone I'm not made of stone
E|----------------------------------------------------------------|
B|---------------------8/10--10\8-------------------------10~-12.-|
G|---------------------------------------------------7/9----------|
D|----------------------------------------------------------------|
A|----------------------------------------------------------------|
E|----------------------------------------------------------------|

                         A    G                                     D
 I got a right  to  be  wrong                so just leave me alone
E|------------------------------------------------------------------|
B|------------------------------------------------------------------|
G|------------------------------------------------------------------|
D|----------------7/9-9---7~~----7-7-7-7-6-5.-----------------------|
A|------------5-7-------9-------------------------------------------|
E|--------5-7-------------------------------------------------------|

Refrão 2

                      A                              G
 I got a right to be wrong   I've been held down to long
E|---------------------------13b----------------12-10h12p10--|
B|-----------------------------------------------------------|
G|-----------------------------------------------------------|
D|-----------------------------------------------------------|
A|-----------------------------------------------------------|
E|-----------------------------------------------------------|

                    D
 I've got to break free
E|------10----10.-12\10.--------------------10-10-10-7-7-7--|
B|------10h12-10.-10\-8.--------------7-7-7/10-10-10-7-7-7--|
G|--------------------------------7-9-----------------------|
D|----------------------------7-9---------------------------|
A|----------------------------------------------------------|
E|----------------------------------------------------------|

                                    A
            I've got a right to be wrong     got to sing my own
|-10-10-10-7-7-7/10-10-10-7-10-----------13b-------------------|
|-10-10-10-7-7-7/10-10-10-7-10---------------------------------|
|--------------------------------------------------------------|
|--------------------------------------------------------------|
|--------------------------------------------------------------|
|--------------------------------------------------------------|

  G                               D
 song  I might be singing out of key     but it sure feels good
|-------------------------------------------10--x-10--x-10/12-|
|--14/15~~--------15p13p12------------10/12-10--x-10--x-10/12-|
|--------------------------------------9/11-------------------|
|--------------------------14\12.-----------------------------|
|-------------------------------------------------------------|
|-------------------------------------------------------------|

   Bm                                              A     G
  to me                Got  a   right   to   be   wrong
|-10/12-12-12-10-10-10----------------------------------------------|
|-10/12-12-12-10-10-10-12-12-12-10-10-10-7-7-7----------------------|
|----------------------11-11-11--9--9--9-7-7-7-9-9-9-7-7-7--7-------|
|----------------------------------------------9-9-9-7-7-7--7h9-7~~-|
|-------------------------------------------------------------------|
|-------------------------------------------------------------------|

                         so just leave me alone
|-------------------------------------------------------------|
|------------------------------------------------11bh--r-7~~--|
|---------------------7.--------------------------------------|
|--7h9--7h9-9-9-9-9-9-7.--------------------------------------|
|-------------------------------------------------------------|
|-------------------------------------------------------------|


 [Vocalização]
|---------------------------------------------------------------|
|-----------------------------------12-10----------12-10--------|
|-9/11--11\9---9bh--r-9p7-----------------9-11~~---------9-11~~-|
|---------------------------------------------------------------|
|---------------------------------------------------------------|
|---------------------------------------------------------------|


                             Got a right got a right
|-----------------------------------------------------|
|-----------------------------------------------------|
|-11\9-7---7h9~~--------------------------------------|
|--------9--------------------------------------------|
|-----------------------------------------5-7-5~~~----|
|-------------------------------------5/7-------------|


 Got a right got a right
|-------------------------------------------------------------|
|-------------------------------------------------------------|
|-------------------7-9.-9~~~---9bh--r--9p7-------------------|
|---------7-9~~~--9----------------------------9p7-9-9-9p7\---|
|---5/7-9---------------------------------------------------5-|
|-------------------------------------------------------------|
Acordes para:
    Composição: Betty Wright / D. Child / Joss StoneColaboração e revisão:
    • Gabriel
    • Juliana Karla

    0 comentários

      mostrar mais comentários

      Conseguiu tocar?

      6tocaram1ainda não

      Grave um vídeo tocando Right To Be Wrong e mande pra gente!

      00:00 / 00:00
      outros vídeos desta música
      repetirqualidadeautomática
      Outro vídeos desta música
        00:00 / 00:00
        automática
        OK