Cifra Club

Desses Tantos Modos

Jota Quest

Cifra: Principal (violão e guitarra)
tom: A
A música inteira os instrumentos fazem esse riff:
                                A     A     A      A                               
--------------------------------5-----5-----5------5---------|
--------------------------------5-----5-----5------5---------|
--------------------------------6-----6-----6------6---------|
--------------------------------7-----7-----7------7---------|
------------------2---5---7-----7-----7-----7------7---------|
-0---0---3---5------------------5-----5-----5------5---------|


     Em    A
Meu amor
                   Em       A
A noite foi maravilhosa
      Em     A
Ainda bem 
                  Em      A
Que a gente tem a gente
C7+    Bm7
Amo você
E4            E
Desses tantos modos

Solo por Pedro Henrique Banda Nattydread
e|---------------------------------------------------- 
B|---------------------------------------------------- 
G|-------------------------------------7-------------- 
D|-----------5-----5~-----------7-8-9--------------5~- 
A|-7-5-7-5-7---5-7----7-5-7-5-7----------7-5-7-5-7---- 
E|----------------------------------------------------
00:00 / 00:00
Outros vídeos desta música
Repetir
Outros vídeos desta música
Composição de Fernanda Mello / Rog
Colaboração e revisão:
  • Pedro Souza
  • benedito neto
  • João Netto
38.072 exibições
    • ½ Tom
    • A
    • Bb
    • B
    • C
    • Db
    • D
    • Eb
    • E
    • F
    • F#
    • G
    • Ab
  • Adicionar à lista

    0 comentários

    Ver todos os comentários

    Conseguiu tocar?

    0 Tocaram 0 Ainda não

    Grave um vídeo tocando Desses Tantos Modos e nos envie!

    Entre para oCifra Club PRO

    Tenha acesso a benefícios exclusivos no App e no Site

    • Chega de anúncios

    • Prioridade de compra em lançamentos

    • Mais recursos no app do Afinador

    • Atendimento Prioritário

    • Descontos nos produtos Cifra Club

    • Ajude a produzir mais conteúdo

    00:00 / 00:00

    Cifra Club Pro

    Aproveite o Cifra Club com benefícios exclusivos e sem anúncios
    Cifra Club Pro
    Aproveite o Cifra Club com benefícios exclusivos e sem anúncios
    OK