Cifra Club

Fugindo de Mim

Jota Quest

Cifra: Principal (violão e guitarra)
tom: F
Introdução: F Dm Bb

VERSO 1

F               Dm
Pisando fundo ,acelerando tudo
Bb                      F F7 F
Exagerando saindo do limite
F F7 F                  Dm         Bb               Bb9             F F7 F
É o que eu te disse eu sou assim, partindo pra cima, fugindo de mim
F F7 F            Dm
Eu corro muito, eu vou pra todo lado
Bb                              F F7 F
Levando comigo quem ta do meu lado    ehh...
F                  Dm            Bb                      Bb9     F F7  F
É o que eu te disse eu sou assim, partindo pra cima, fugindo de mim

PRÉ-REFRÃO

Bb                 Dm
Ah não perco tempo nem perco a hora
Bb  Bb9        Dm
Ah, ah esse é o momento a hora é agora
Bb            Dm
Ah vivo cada instante não quero perder nada
Gm                   Bb      Bb9
Ontem está distante ficou lá trás na estrada

REFRÃO

F             Dm             Gm                     Bb Bm 
Só não existe viver sozinho, viver sem você   yeah yeah
F                  Dm                 Gm                F F7 F   
Sempre que eu fujo te levo aqui, aqui comigo por que te amo
F            Bb                            F
Eu sou assim partindo pra cima fugindo de mim

VERSO 2

F             Dm            Bb             Bb9       F
Eu aproveito cada minuto se fiz tá feito eu nem discuto
F                    Dm             Bb                            F
É o que eu te disse, eu sou assim partindo pra cima fugindo de mim

PRÉ-REFRÃO

Bb           Dm
Ah não perco tempo nem perco a hora
Bb  Bb9         Dm
Ah, ah esse é o momento a hora e agora
Bb           Dm
Ah vivo cada instante não quero perder nada
Gm                   Bb      Bb9
Ontem esta distante ficou lá trás na estrada

REFRÃO

F              Dm                  Gm          Bb Bm 
Só não existe viver sozinho, viver sem você eh eh                                    
F                  Dm                  Gm                F  F7  F               2x
Sempre que eu fujo te levo aqui, aqui comigo por que te amooo...             


Solo ( F Dm ) 2x

F                  Dm                      Bb                  Dm
Eu que eu te disse eu sou assim, partindo pra cima, fugindo de mim
F                  Dm
Eu aproveito cada minuto 
Gm                   Bb               Bb9
Ontem está distante fico lá trás na estrada

REFRÃO

F             Dm                  Gm          Bb Bm 
Só não existe viver sozinho,viver sem você eh yeah
                                                                                               
F                  Dm                   Gm               F                  2x
Sempre que eu fujo te levo aqui, aqui comigo por que te amo

F            Bb                           F  F7 F
Eu sou assim partindo pra cima fugindo de mim
F                     Dm           Bb            Bb9              F
É o que eu te disse eu sou assim partindo pra cima fugindo de mim

Todas as tabs da música, inclusive solo e solo base que toca ao fundo.

Início
|----------------------------------------------------------------------------|
|--------------------------------------------1-3-1-3-------------------------|
|--0-2-0-2----0-2-0-2----0-2-5-2-------------3-3-3-3-----0-2-0-2-------------|
|--3-3-3-3----3-3-3-3----3-3-3-3-------------------------3-3-3-3-------------|
|----------------------------------------------------------------------------|
|----------------------------------------------------------------------------|

|----------------------------------------------------------------------------|
|----------------------------------------------------------------------------|
|-----------------------------1-3-1-3----------------------------------------|
|---0-2-0-2---0-2-0-2---------3-3-3-3----0-2-5-2-----------------------------|
|---3-3-3-3---3-3-3-3--------------------3-3-3-3-----------------------------|
|----------------------------------------------------------------------------|

|----------------------------------------------------------------------------|
|-------------------------------1-3-1-3----1-3-1-3---------------------------|
|----0-2-0-2----0-2-5-2---------3-3-3-3----3-3-3-3---------------------------|
|----3-3-3-3----3-3-3-3------------------------------------------------------|
|----------------------------------------------------------------------------|
|----------------------------------------------------------------------------|

Pré-Refrão 
|-------1------------1---------------------1-----------------------------------|
|------------3----3------------3-----------------------------------------------|
|----3---------2---------0-----------------------------------------------------|
|------------------------------------------------------------------------------|
|------------------------------------------------------------------------------|
|------------------------------------------------------------------------------|

|---------1-----------1--------1----3-------------------------------------------|
|--------------3----3-------------3---------------------------------------------|
|------3---------2----------0---------------------------------------------------|
|-------------------------------------------------------------------------------|
|-------------------------------------------------------------------------------|
|-------------------------------------------------------------------------------|

|-------1------------1---------------------1-----------------------------------|
|------------3----3------------3-----------------------------------------------|
|----3---------2---------0-----------0-----------------------------------------|
|------------------------------------------------------------------------------|
|------------------------------------------------------------------------------|
|------------------------------------------------------------------------------|

|-------------------1--1--1--1--|
|------1-3-1-3------1--1--1--1--|
|------3-3-3-3------3--3--3--3--|
|-------------------3--3--3--3--|
|-------------------1--1--1--1--|
|-------------------------------|

Refrão

“Só não existe viver sozinho, viver sem você   yeah yeah"

|------------------------------------------------|
|---------------1-3-1-3---1-3-1-3---1-3-1-3---1--|
|---0-2-0-2-----3-3-3-3---3-3-3-3---3-3-3-3---3--|
|---3-3-3-3--------------------------------------|
|------------------------------------------------|
|------------------------------------------------|

“Sempre que eu fujo te levo aqui, aqui comigo por que te amo."

|-----------------------------------------------------|
|---------------------------1-3-1/3-------------------|
|---0-2-0-2---0-2-5-2-------3-3-3---------------------|
|---3-3-3-3---3-3-3-3---------------------------------|
|-----------------------------------------------------|
|-----------------------------------------------------|

Verso 2

|--------------------------------------------------------------------------------------|
|--1-3-1-1/3----------------------------1-3-1-3----------------------------------------|
|--3-3-3-3----0-2-0-2---0-2-0-2---------3-3-3-3----0-2-5-2-----------------------------|
|-------------3-3-3-3---3-3-3-3--------------------3-3-3-3-----------------------------|
|--------------------------------------------------------------------------------------|
|--------------------------------------------------------------------------------------|

|----------------------------------------------------------------------------|
|-------------------------------1-3-1-3----1-3-1-3---------------------------|
|----0-2-0-2----0-2-5-2---------3-3-3-3----3-3-3-3---------------------------|
|----3-3-3-3----3-3-3-3------------------------------------------------------|
|----------------------------------------------------------------------------|
|----------------------------------------------------------------------------|

Pré-Refrão
|-------1------------1---------------------1-------------------------------------|
|------------3----3------------3-------------------------------------------------|
|----3---------2---------0-------------------------------------------------------|
|--------------------------------------------------------------------------------|
|--------------------------------------------------------------------------------|
|--------------------------------------------------------------------------------|

|---------1-----------1--------1----3--1----------------------------------------|
|--------------3----3-------------3---------------------------------------------|
|------3---------2----------0---------------------------------------------------|
|-------------------------------------------------------------------------------|
|-------------------------------------------------------------------------------|
|-------------------------------------------------------------------------------|
|-------1------------1---------------------1-----------------------------------|
|------------3----3------------3-----------------------------------------------|
|----3---------2---------0-----------0-----------------------------------------|
|------------------------------------------------------------------------------|
|------------------------------------------------------------------------------|
|------------------------------------------------------------------------------|

|-------------------1--1--1--1--|
|------1-3-1-3------1--1--1--1--|
|------3-3-3-3------3--3--3--3--|
|-------------------3--3--3--3--|
|-------------------1--1--1--1--|
|-------------------------------|

Refrão

“Só não existe viver sozinho, viver sem você   yeah yeah"

|-------------------------------------------------------|
|---------------1-3-1-3---1-3-1-3---1-3-1-3---1---------|
|---0-2-0-2-----3-3-3-3---3-3-3-3---3-3-3-3---3---------|
|---3-3-3-3---------------------------------------------|
|-------------------------------------------------------|
|-------------------------------------------------------|

“Sempre que eu fujo te levo aqui, aqui comigo por que te amo."

|-------------------------------------------------------| (1ª vez que dá o refrão)
|---------------------------1-3-1/3---------------------|
|---0-2-0-2---0-2-5-2-------3-3-3------0-2-0-2----------|
|---3-3-3-3---3-3-3-3------------------3-3-3-3----------|
|-------------------------------------------------------|
|-------------------------------------------------------|

|---------------------------------------------------| (2ª vez que dá o refrão)
|---------------------------1-3-1/3---1-3-1-3-------|
|---0-2-0-2---0-2-5-2-------3-3-3-----3-3-3-3-------|
|---3-3-3-3---3-3-3-3-------------------------------|
|---------------------------------------------------|
|---------------------------------------------------|

Solo

|-----------------------------------------------------------------------------------------|
|-----15-13--15---------------------------------------15-13-15-18--15~~-15b~~-------------|
|------------------12-12b--------12-14-14b------------------------------------------------|
|---------------------------12-15---------------------------------------------------------|
|-----------------------------------------------------------------------------------------|
|-----------------------------------------------------------------------------------15=>--|

Solo Base

e|--------3----1-----3---5---1----|
B|----3-----3----3----------------|

No instante 3:18 a 3:21

e|------3----1----3---5---1-------0---1--|
B|---3----3----3---------------3---------|

Refrão

“Só não existe viver sozinho, viver sem você   yeah yeah"

|-------------------------------------------------------|
|---------------1-3-1-3---1-3-1-3---1-3-1-3---1---------|
|---0-2-0-2-----3-3-3-3---3-3-3-3---3-3-3-3---3---------|
|---3-3-3-3---------------------------------------------|
|-------------------------------------------------------|
|-------------------------------------------------------|

“Sempre que eu fujo te levo aqui, aqui comigo por que te amo."

|-------------------------------------------------------|
|---------------------------1-3-1/3---------------------|
|---0-2-0-2---0-2-5-2-------3-3-3-----------------------|
|---3-3-3-3---3-3-3-3-----------------------------------|
|-------------------------------------------------------|
|-------------------------------------------------------|

(2ª vez do refrão)

e|---------3---5---1------------|
B|----3-------------------------|
00:00 / 00:00
Outros vídeos desta música
Repetir
Outros vídeos desta música
Composição de Wilson Sideral
Colaboração e revisão:
  • Filipe Dalpiaz
  • Eddy Pires
88.849 exibições
    • ½ Tom
    • A
    • Bb
    • B
    • C
    • Db
    • D
    • Eb
    • E
    • F
    • F#
    • G
    • Ab
  • Adicionar à lista

    0 comentários

    Ver todos os comentários

    Conseguiu tocar?

    2 Tocaram 0 Ainda não

    Grave um vídeo tocando Fugindo de Mim e nos envie!

    Entre para oCifra Club PRO

    Tenha acesso a benefícios exclusivos no App e no Site

    • Chega de anúncios

    • Prioridade de compra em lançamentos

    • Mais recursos no app do Afinador

    • Atendimento Prioritário

    • Descontos nos produtos Cifra Club

    • Ajude a produzir mais conteúdo

    00:00 / 00:00

    Cifra Club Pro

    Aproveite o Cifra Club com benefícios exclusivos e sem anúncios
    Cifra Club Pro
    Aproveite o Cifra Club com benefícios exclusivos e sem anúncios
    OK