Cifra Club

For You

Journey

Cifra: Principal (violão e guitarra)
Tom: G
Intro 2x:
   D    C                 D    C
E|----3-0-------------------3-0--------------------|
B|---3---1-----------------3---1-------------------|
G|--2-----0-0-------------2-----0-0----------------|
D|-0-------2-------------0-------2-----------------|
A|------------2-2-2-2--------------2-2-2-2---------|
E|-------------------3---------------------3-------|

E|----3-0-------------------3-0--------------------|
B|---3---1-----------------3---1-------------------|
G|--2-----0-0-------------2-----0-0----------------|
D|-0-------2-------------0-------2-----------------|
A|------------2-2-2-2--------------2-2-2-2---------|
E|-------------------3---------------------3-------|
And if you hold on.....

E|----3-0-------------------3-0----------------------------|
B|---3---1-----------------3---1---------------2-2-2-2-2-2-|
G|--2-----0-0-------------2-----0-0------------2-2-2-2-2-2-|
D|-0-------2-------------0-------2-------------2-2-2-2-2-2-|
A|------------2-2-2-2--------------2-2-2-2-----------------|
E|-------------------3---------------------3---------------|
I'll sing you love songs.....

Refrão:
     C  G  C G  D
E|--0--1--0-1--2--------0--1--0-1--2---------------|
B|--1--0--1-0--3--------1--0--1-0--3---------------|
G|--0--0--0-0--2--------0--0--0-0--2---------------|
D|--2--0--2-0-----------2--0--2-0------------------|
A|--3--2--3-2-----------3--2--3-2------------------|
E|--0--3--0-3-----------0--3--0-3------------------|
All for you....

E|--0--1--0-1--2--------0--1--0-1--2---------------|
B|--1--0--1-0--3--------1--0--1-0--3---------------|
G|--0--0--0-0--2--------0--0--0-0--2---------------|
D|--2--0--2-0-----------2--0--2-0------------------|
A|--3--2--3-2-----------3--2--3-2------------------|
E|--0--3--0-3-----------0--3--0-3------------------|
All for you.....

E|----3-0-------------------3-0--------------------|
B|---3---1-----------------3---1-------------------|
G|--2-----0-0-------------2-----0-0----------------|
D|-0-------2-------------0-------2-----------------|
A|------------2-2-2-2--------------2-2-2-2---------|
E|-------------------3---------------------3-------|
And like a seed......

E|----3-0-------------------3-0----------------------------|
B|---3---1-----------------3---1---------------2-2-2-2-2-2-|
G|--2-----0-0-------------2-----0-0------------2-2-2-2-2-2-|
D|-0-------2-------------0-------2-------------2-2-2-2-2-2-|
A|------------2-2-2-2--------------2-2-2-2-----------------|
E|-------------------3---------------------3---------------|
And as the song bird .......

Refrão:
E|--0--1--0-1--2--------0--1--0-1--2---------------|
B|--1--0--1-0--3--------1--0--1-0--3---------------|
G|--0--0--0-0--2--------0--0--0-0--2---------------|
D|--2--0--2-0-----------2--0--2-0------------------|
A|--3--2--3-2-----------3--2--3-2------------------|
E|--0--3--0-3-----------0--3--0-3------------------|
All for you ......

E|--0--1--0-1--2--------0--1--0-1--2---------------|
B|--1--0--1-0--3--------1--0--1-0--3---------------|
G|--0--0--0-0--2--------0--0--0-0--2---------------|
D|--2--0--2-0-----------2--0--2-0------------------|
A|--3--2--3-2-----------3--2--3-2------------------|
E|--0--3--0-3-----------0--3--0-3------------------|
All for you .......

E|-----------------------------------------------------------|
B|----3---3---3---3---3---3---3---3---3---3---3---3----------|
G|---0---0---0---0---0---0---0---0---0---0---0---0-----------|
D|-----------------------------------------------------------|
A|--3---2---1---0---2---3---3---2---1---0---2---3------------|
E|-----------------------------------------------------------|
Always be the same

Solo:
E|----3-0-------------------3-0--------------------|
B|---3---1-----------------3---1-------------------|
G|--2-----0-0-------------2-----0-0----------------|
D|-0-------2-------------0-------2-----------------|
A|------------2-2-2-2--------------2-2-2-2---------|
E|-------------------3---------------------3-------|
And if your colors ........

E|----3-0-------------------3-0----------------------------|
B|---3---1-----------------3---1---------------2-2-2-2-2-2-|
G|--2-----0-0-------------2-----0-0------------2-2-2-2-2-2-|
D|-0-------2-------------0-------2-------------2-2-2-2-2-2-|
A|------------2-2-2-2--------------2-2-2-2-----------------|
E|-------------------3---------------------3---------------|
I'll bring a rainbow ......

Refrão:
E|--0--1--0-1--2--------0--1--0-1--2---------------|
B|--1--0--1-0--3--------1--0--1-0--3---------------|
G|--0--0--0-0--2--------0--0--0-0--2---------------|
D|--2--0--2-0-----------2--0--2-0------------------|
A|--3--2--3-2-----------3--2--3-2------------------|
E|--0--3--0-3-----------0--3--0-3------------------|
All for you ......

E|--0--1--0-1--2--------0--1--0-1--2---------------|
B|--1--0--1-0--3--------1--0--1-0--3---------------|
G|--0--0--0-0--2--------0--0--0-0--2---------------|
D|--2--0--2-0-----------2--0--2-0------------------|
A|--3--2--3-2-----------3--2--3-2------------------|
E|--0--3--0-3-----------0--3--0-3------------------|
All for you......
exibições 261
Acordes para:
    Colaboração e revisão:
    • Mansinho Jr.

    0 comentários

    mostrar mais comentários

    Conseguiu tocar?

    0 tocaram 0 ainda não

    Grave um vídeo tocando For You e mande pra gente!

    00:00 / 00:00
    outros vídeos desta música
    repetir qualidade Automático
    Outros vídeos desta música
    00:00 / 00:00
    Automático
    OK