Cifra Club

Lights

Journey

Tab de baixo: Principal
G|----|----|----|----|----|----|-----------|-----------|
D|----|----|----|----|----|----|-----------|-----------|
A|----|----|----|----|----|----|-5-0-5=(5)===(5)-0-2-4-|
E|----|----|----|----|----|----|-----------|-----------|

G|---------|----|---------|----|---------|----|---------|----|
D|---------|----|---------|----|---------|----|---------|----|
A|-5=(5)-4-|-2--|-3=(3)---|-3--|-5=(5)-4-|-2--|-3=(3)---|-3--|
E|---------|----|-------3-|----|---------|----|-------3-|----|

G|---------|----|---------|-----------|-----------|
D|---------|----|---------|-----------|-----------|
A|-5=(5)-4-|-2--|-3=(3)---|-3=(3)---3-|-2=(2)---2-|
E|---------|----|-------3-|-------3---|-------2---|

G|-----------|-----------|-----------|
D|-------0-2-|-----------|-----------|
A|-3=(3)-----|-5-0-5=(5)===(5)-0-2-4-|
E|-----------|-----------|-----------|

G|---------|----|---------|----|---------|----|---------|----|
D|---------|----|---------|----|---------|----|---------|----|
A|-5=(5)-4-|-2--|-3=(3)---|-3--|-5=(5)-4-|-2--|-3=(3)---|-3--|
E|---------|----|-------3-|----|---------|----|-------3-|----|

G|---------|----|---------|-----------|-----------|
D|---------|----|---------|-----------|-----------|
A|-5=(5)-4-|-2--|-3=(3)---|-3=(3)---3-|-2=(2)---2-|
E|---------|----|-------3-|-------3---|-------2---|

G|-----------|-----------|---------------|
D|-----------|-----------|---------------|
A|-3=(3)---3-|-5-0-5=(5)===(5)-5-5-5-4-3-|
E|-------3---|-----------|---------------|

G|---------|-----------|---------|-----------|
D|---------|-----------|---------|-----------|
A|-2=(2)-0-|-------2-4-|-5=(5)-0-|-5=(5)-4-3-|
E|---------|-3=(3)-----|---------|-----------|

G|---------|-----------|----------|-------------|
D|---------|-----------|----------|-------------|
A|-2=(2)-0-|-------2-4-|-5--5-4-2-|---0---0---1-|
E|---------|-3=(3)-----|----------|-------------|

G|---------|-----------|---------|-------------|
D|---------|-----------|---------|-------------|
A|-2=(2)-0-|-------2-4-|-5=(5)-0-|-5-5-5-5-4-3-|
E|---------|-3=(3)-----|---------|-------------|

G|-----------|-----------|-----------|-----------|
D|-----------|-----------|-----------|-----------|
A|-2=(2)---2-|-3=(3)---3-|-5-0-5=(5)===(5)-0-2-4-|
E|-------2---|-------3---|-----------|-----------|

G|------------------------------------------------------------------------|
D|------------------------------------------------------------------------|
A|-5=(5)-4--2=(2)-2--3=(3)----3=(3)-4--5=(5)-4--2=(2)-2--3=(3)----3=(3)-4-|
E|-------------------------3-----------------------------------3----------|

G|---------|---------|---------|-----------|
D|---------|---------|---------|-----------|
A|-5=(5)-4-|-2=(2)-2-|-3=(3)---|-3=(3)---3-|
E|---------|---------|-------3-|-------3---|

G|-----------|-----------|---------------|-------------|
D|-----------|-----------|---------------|-------------|
A|-2=(2)---2-|-3=(3)---3-|-5-0-5=(5)-5-5-|-5-5-5-5-4-3-|
E|-------2---|-------3---|---------------|-------------|

G|---------|-----------|---------|-----------|
D|---------|-----------|---------|-----------|
A|-2=(2)-0-|-------2-4-|-5=(5)-0-|-5=(5)-4-3-|
E|---------|-3=(3)-----|---------|-----------|

G|---------|-----------|----------|-------------|
D|---------|-----------|----------|-------------|
A|-2=(2)-0-|-------2-4-|-5--5-4-2-|---0---0---1-|
E|---------|-3=(3)-----|----------|-------------|

G|---------|-----------|---------|-------------|
D|---------|-----------|---------|-------------|
A|-2=(2)-0-|-------2-4-|-5=(5)-0-|-5-5-5-5-4-3-|
E|---------|-3=(3)-----|---------|-------------|

G|-----------|-----------|-----------|-----------|
D|-----------|-----------|-----------|-----------|
A|-2=(2)---2-|-3=(3)---3-|-5-0-5=(5)===(5)-0-2-4-|
E|-------2---|-------3---|-----------|-----------|

G|-----------|-----------|-------------|-------------|
D|-----------|-------0-2-|---7---------|-------------|
A|-2=(2)---2-|-3=(3)-----|-5---5-5-5-5-|-5-5-5-5-2-4-|
E|-------2---|-----------|-------------|-------------|

G|--------|---------|---------|-----------|--------|---------|---------|
D|--------|---------|---------|-----------|--------|---------|---------|
A|-5--5-4-|-2=(2)-2-|-3=(3)---|-3=(3)-3-4-|-5--5-4-|-2=(2)-2-|-3=(3)---|
E|--------|---------|-------3-|-----------|--------|---------|-------3-|

G|-----------|
D|-------0-2-|
A|-3=(3)-----|
E|-----------|

G|--------|---------|---------|----------|
D|--------|---------|---------|----------|
A|-5--5-4-|-2=(2)-2-|-3=(3)---|-3--3---3-|
E|--------|---------|-------3-|------3---|

G|-----------|----------|-----------|----|
D|-----------|----------|-----------|----|
A|-2=(2)---2-|-3--3---3-|-5-0-5=(5)===5--|
E|-------2---|------3---|-----------|----|

G|-----------|-----------|-----------|----|
D|-----------|-------0-2-|---7-------|----|
A|-2=(2)---2-|-3=(3)-----|-5---5=(5)===5--|
E|-------2---|-----------|-----------|----|
exibições 139
Composição: N. Schon / S. Perry Colaboração e revisão:
  • Mansinho Jr.

0 comentários

mostrar mais comentários

Conseguiu tocar?

0 tocaram 0 ainda não

Grave um vídeo tocando Lights e mande pra gente!

00:00 / 00:00
outros vídeos desta música
repetir qualidade Automático
Outros vídeos desta música
00:00 / 00:00
Automático
OK