Cifra Club

Aprenda

She's Lost Control

Joy Division

Cifra: Versão 2 (violão e guitarra)
tom: F
Riff:
e|------------------------------------------------------------------------------|
B|------------------------------------------------------------------------------|
G|-7--7-7-7--7-7--5-7-5-3--3-3-3--5--5-5-5--5-5--3-5-3--------------------------|
D|------------------------------------------------------5--5-5-5----------------|
A|------------------------------------------------------------------------------|
E|------------------------------------------------------------------------------|

Riff 2:
e|------------------------------------------------------------------------------|
B|------------------------------------------------------------------------------|
G|-------------3-3-3--5-5-5--7-7--7-7-7-7-7-7-7-7-7-7-7-7-7-7-------------------|
D|-5-5--7-7-7--3-3-3--5-5-5--7-7--7-7-7-7-7-7-7-7-7-7-7-7-7-7-------------------|
A|-5-5--7-7-7--1-1-1--3-3-3--5-5--5-5-5-5-5-5-5-5-5-5-5-5-5-5-------------------|
E|-3-3--5-5-5-------------------------------------------------------------------|
Composição de Bernard Sumner / Ian Curtis / Peter Hook / Stephen Morris
Colaboração e revisão:
  • Gino Colherinhas
3.922 exibições
    • ½ Tom
    • A
    • Bb
    • B
    • C
    • Db
    • D
    • Eb
    • E
    • F
    • F#
    • G
    • Ab
  • Adicionar à lista

    0 comentários

    Ver todos os comentários

    Conseguiu tocar?

    1 Tocaram 0 Ainda não

    Grave um vídeo tocando She's Lost Control e nos envie!

    00:00 / 00:00
    Outros vídeos desta música
    Repetir Qualidade Automático
    Outros vídeos desta música
    00:00 / 00:00
    Automático

    Cifra Club Pro

    Aproveite o Cifra Club com benefícios exclusivos e sem anúncios
    Cifra Club Pro
    Aproveite o Cifra Club com benefícios exclusivos e sem anúncios
    OK