Cifra Club

A Dios Le Pido

Juanes

Cifra: Principal (violão e guitarra)
Selo Cifra Club: esta cifra foi revisada para atender aos critérios oficiais da nossa Equipe de Qualidade.
tom: C
[Intro]

E|-5-5-5-5-8-8-8-8-5-5-5-5--------------------------|
B|-5-5-5-5-5-5-5-5-5-5-5-5--------------------------|
G|-5-5-5-5-5-5-5-5-5-5-5-5----4-7-4----4-7-4--------|
D|--------------------------6--------6--------6-7---|
A|--------------------------------------------------|
E|--------------------------------------------------|

E|--------------------------------------------------|
B|-----5-5-----5-5----------------------------------|
G|---5-------5-----7-4-------4-7-4---4-7-4----------|
D|-7-------7-----------6~--6-------6--------6-7~----|
A|--------------------------------------------------|
E|--------------------------------------------------|

E|----------5--5-4-0---7-10-8----8-7----------------|
B|-----5--5--5--------9-------10-----9-10-9~--------|
G|---5--5-------------------------------------------|
D|-7------------------------------------------------|
A|--------------------------------------------------|
E|--------------------------------------------------|

Am                                             E7
Que mis ojos se despierten, con la luz de tu mirada, yo
           Am
A Dios le pido !
Am                                             E7
Que mi madre  no se muera y que mi padre me recuerde
           Am
A Dios le pido !
Am                  Dm                    E7
Que te quedes a mi lado y más nunca te me vayas mi vida
          Am
A Dios le pido !
Am                Dm                        E7
Que mi alma no descanse cuando de amarte se trate, mi cielo
          Am
A Dios le pido !
Am                                                 E7
Por los días que me quedan y las noches que aún no llegan, yo
          Am
A Dios le pido !
Am                                            E7
Por los hijos de mis hijos y los hijos de tus hijos
          Am
A Dios le pido !
Am                  Dm                       E7
Que mi pueblo no derrame tanta sangre y se levante mi gente
          Am
A Dios le pido !
Am                Dm                        E7
Que mi alma no descanse cuando de amarte se trate mi cielo
          Am
A Dios le pido !

Am                E/G#           G                D/F#
Un segundo más de vida para darte  y mi corazón entero entregarte
Am                E/G#           G                D/F#
Un segundo más de vida para darte  y a tu lado para siempre yo quedarme
F                  E7                           C
 Un segundo más de vida yoooooooo !   a Dios le pido !

 C                       G                            Am
Que si me muero sea de amor, y si me enamoro sea de vos
                             G                              C
Y que de tu voz sea este corazón, todos los días a Dios le pido

C                       G                            Am
Que si me muero sea de amor, y si me enamoro sea de vos
                             G                              C
Y que de tu voz sea este corazón, todos los días a Dios le pido

C                       G                            Am
Que si me muero sea de amor, y si me enamoro sea de vos
                             G               E7
Y que de tu voz sea este corazón, todos los días yoooooooo
           Am
A Dios le pido !
Outros vídeos desta música
    119.970 exibições
      • ½ Tom
      • A
      • Bb
      • B
      • C
      • Db
      • D
      • Eb
      • E
      • F
      • F#
      • G
      • Ab
    • Adicionar à lista

    Afinação da cifra

    Afinador online

      0 comentários

      Ver todos os comentários

      Entre para o Cifra Club PRO

      Tenha acesso a benefícios exclusivos no App e no Site

      • Chega de anúncios

      • Badges exclusivas

      • Mais recursos no app do Afinador

      • Atendimento Prioritário

      • Aumente seu limite de lista

      • Ajude a produzir mais conteúdo

      Cifra Club Pro

      Aproveite o Cifra Club com benefícios exclusivos e sem anúncios
      Cifra Club Pro
      Aproveite o Cifra Club com benefícios exclusivos e sem anúncios
      Ops (: Contenido disponible sólo en portugués.
      OK