Cifra Club

Dreamer Deceiver

Judas Priest

Cifra: Principal
exibições 2.415
Tom: A

-----------0------------------------------------------------------------------
-------0----------------------------------------------------------------------
---------0--------------------------------------------------------------------
-----2------------------------------------------------------------------------
------------------------------------------------------------------------------
---0--------------------------------------------------------------------------

 INTRO                                                
                       


---------0----------------0---------------------------------0-----------------
-----0-----0----------0-----0---------------------------0---------------------
-------0-----0----------0-----0--------0-------0----------0-------------------
---2-----------2----4-----------4----2---2---0---0----2-----------------------
------------------5----------------3-------2----------------------------------
-0--------------------------------------------------0-------------------------
 2X "Standing . . "                                   

                       


-------------------------------0----------------------------------------------
-------0---------0---------------0--------------------------------------------
-----0---------0---------0---0-----0------------------------------------------
---4---------2---------2---2--------------------------------------------------
-5---------3------------------------------------------------------------------
---------------------0--------------------------------------------------------
 2X "Asked us . . "                                   

                       


-----------------------------------------0------------------------------------
-------0---------------------------0---0----0---------------------------------
-----0-----------0--------0----------0--------0-------------------------------
---4-----------0--------0--------2--------------------------------------------
-5-----------2--------4-------------------------------------------------------
-----------3--------5----------0----------------------------------------------

 "Took us  by the  hands and   up we go . ."          
                       


-------------0-------------------------------|-------------------------------
---------------------------------------------|-------------------------------
-----0--------------------------0------------|-------------------------------
---------2--------------4-------5-----4------|--4----------------------------
--------------------5-------5-------------5--|--5-----5-\-2-----/------------
-0-------------------------------------------|-------------------------------
 Verse I     play 6X                                 

end fill A                      


-------------3------------------2------------|-------------------------------
-------------3------------------3--3---------|-------------------------------
-----0-------0------------------2----2-------|-------------------------------
---------2---2----------4--------------0-----|--4---------/9--7--------------
--------------------5-------5----------------|--5----------------------------
-0-------------------------------------------|-------5-----------------------
 Verse II     play 6X                              

end fill B                   

----------------|-------------------------------------------------------------
----7-8--10--8--|-----------4-2-0---------------------------------------------
--9-------------|-----222-4----------4--2-------------------------------------
----------------|-------------------------------------------------------------
-----fill a-----|------fill
b-------------------------------------------------------
----------------|-------------------------------------------------------------
 These fills are in the verses on rcord but not played
live  

Pattern for this:
Verse I  - end fill A
Verse II - fill a
Verse I  - end fill A
Verse II - fill b
Verse I  - end fill A
Verse II - end fill B

                 


-0---0----------2--3--2-0h2-0--------------0----0-----------------------------
-0---0----------3--3--3-3---1-1------------0----0-----------------------------
-1-------1------2--2--2-2---0--------------1----1------\----------------------
-2--------------0-----0-0---2----0h2--2p0--2----2------\----------------------
-2--------------------------3----0h3--3p0--2----2------\----------------------
-0-----------------------------------------0----0-----------------------------

 Distortion on     (Chorus Part)              (strum +
dive live only)       


------------------------------------------------------------------------------
------------------------------------------------8-------7h8-------------------
--------------------------------------------7h9---9-7-------9-----------------
-------------------4-4h5-4-h5/7----5-7--57/9----------9-----------------------
---------5--5h7---------------------------------------------------------------
-3h5-/-7----------------------------------------------------------------------

 solo                                


------------------------------------------------------------------------------
-/12------10-10h12-10---------------------------------------------------------
----------------------12-11-9---9h11-12-------12--11h12p11--9-----------------
----------------------------------------12-10---------------------------------
------------------------------------------------------------------------------
------------------------------------------------------------------------------

                                                      
                       


-----10h12p12----10-12------12-14-15--15/17-15--14-------------14-15-14-15----
--12----------12-----------------------------------17----15-17-------------17-
------------------------------------------------------------------------------
------------------------------------------------------------------------------
------------------------------------------------------------------------------
------------------------------------------------------------------------------

                                                      
   ??????????????????? 


-12--14-15--14--15--17-/19--17-/19--17-/19\17---------------------------------
------------------------------------------------------------------------------
------------------------------------------------------------------------------
------------------------------------------------------------------------------
------------------------------------------------------------------------------
------------------------------------------------------------------------------

                                                      
                       

------------------------------------------------------------------------------
------------------------------------------------------------------------------
------------------------------------------------------------------------------
------------------------------------------------------------------------------
------------------------------------------------------------------------------
------------------------------------------------------------------------------
 The rest of the solo goes here                       
                       


------------------------------------------|-----------|--------------------0--
-8-7---------8-7-----8/12--8-7---8-8-7-8-7|8-7--------|--------------------0--
-----9-7-7h9-----9-7-----------9----------|----9-7-7h9|--------------------1--
------------------------------------------|-----------|5-4-----------------2--
------------------------------------------|-----------|----7-5-7-5-3-2-----2--
------------------------------------------|-----------|----------------3-2-0--

 End part of the solo                        1st time 
 last time to E         


-------------------------------|----------------------------------------------
-------------------------------|--1-------4-----------------------------------
-------------------------------|--0-------4-----------------------------------
-------------------------------|--2-------4-----------------------------------
-------------------------------|--3-------2-----------------------------------
-------------------------------|----------0-----------------------------------

 Chorus here twice after solo    Ending 2nd time      
                       


Deceiver:



------------------------------------------------------------------------------
------------------------------------------------------------------------------
--7h9-----7h9------7h9------9p7----7------------------------------------------
--7h9-----7h9------7h9------9p7----7------------------------------------------
--7-------7--------7------------9--5------------------------------------------
-----0000-----0000-----0000---------------------------------------------------

 Intro                                 Repeat         
                       


------------------------------------------------------------------------------
------------------------------------------------------------------------------
--9-------9-------7---------9-------------------------------------------------
--9-------9-------7---------9-------------------------------------------------
--7-------7-------5---------7----------5---5---4--4h5----7--\-----------------
------------------------------------------------------------------------------

 Guitar 2 Under intro 3rd time on                     
                       


--------------|------------|--------------------------------------------------
--------------|------------|--------------------------------------------------
--------------|------------|-9p7----7-----------------------------------------
--5-----------|--5---7-7---|-9p7----7-----------------------------------------
--5-----------|--5---7-7---|-----9--5-----------------------------------------
--3-0-0-0-0---|--3---5-5---|--------------------------------------------------

 Verese         4th time      8th time                
                       


-------------------------------|-------------------|--------------------------
-------------------------------|-------------------|--------------------------
--7----------------------------|--7-----------7--9-|--------------------------
--7---5------------------------|--7---5---7---7--9-|--------------------------
--5---5------------------------|--5---5---7---5--7-|-------0---0-2-0---0------
------3----3p0-0-0-0-3p0-0-0-0-|------3---5--------|-0-2-3---3-------3--------

 "All is lost . . "              last time            
 fill                  


------------------------------------------------------------------------------
--------------------12-12b--12b/15b12-10--------------------------------------
-----------------------------------------12-----------------------------------
-8bb-8b-8b--7--5--------------------------------------------------------------
------------------------------------------------------------------------------
------------------------------------------------------------------------------

                                                      
                       


------------------------------------------------------------------------------
------------------------------------------------------------------------------
--12p9----12p9----12p9----12p9----12p9----12p9----12p9----12p9----------------
-------12------12------12------12------12------12------12------12-------------
------------------------------------------------------------------------------
------------------------------------------------------------------------------

                                                      
                       

------------------------------------------------------------------------------
------------------------------------------------------------------------------
------------------------------------------------------------------------------
------------------------------------------------------------------------------
------------------------------------------------------------------------------
------------------------------------------------------------------------------
  The rest of the solo goes here                      
                       


------------------------------------------------------------------------------
------------------------------------------------------------------------------
---------------------------9--------------------------------------------------
---------------------------9--------------------------------------------------
-------0---0-2-0---0-2-/5--7--------------------------------------------------
-0-2-3---3-------3------------------------------------------------------------

 fill at end                                          
                      


Outro (not live on record only):

Fingerpick these chords:

E  D  C  E                                           

with a few variations on the D and C

Good Luck!
Acordes para:
    Composição: Al Atkins / Glenn Tipton / Håkan Lundqvist / K.K. DowningColaboração e revisão:
    • Henrique

    0 comentários

      mostrar mais comentários

      Conseguiu tocar?

      2tocaram0ainda não

      Grave um vídeo tocando Dreamer Deceiver e mande pra gente!

      00:00 / 00:00
      outros vídeos desta música
      repetirqualidadeautomática
      Outro vídeos desta música
        00:00 / 00:00
        automática
        OK