Enviar cifraEntrar

Electric Eye

Judas Priest

Cifra: Principal
exibições 36.612
Tom: E
Gtr I (E A D G B E) - 'K.K. Downing - Rhythm w/dist' 
Gtr II (E A D G B E) - 'Glen Tipton - Rhythm w/dist' 
Gtr III (E A D G B E) - 'Glen Tipton - Lead w/dist' 
 
Intro 
  Q=194 
 4/4 
  Gtr I 
           PM  PM    PM                PM  PM    PM 
  E   +E   E E E  E  E  E   E     +E   E E E  E  E  E  E 
|---|--------------------------|-------------------------| 
|---|--------------------------|-------------------------| 
|---|--------------------------|-------------------------| 
|-9-|-(9)\---2---{4}---{5}-----|---------2---{4}---{5}-2-| 
|-7-|-(7)\-----------0-----{3}-|-({3})-----------0-----0-| 
|---|------0---0---------------|-------0---0-------------| 
| 
| Gtr II 
| E   +Q     Q    Q     E   E     +Q     Q    Q     E  E 
|---|--------------------------|-------------------------| 
|---|--------------------------|-------------------------| 
|---|--------------------------|-------------------------| 
|-9-|-(9)\---2----4-----5------|---------2----4-----5----| 
|-7-|-(7)\------------------3--|--(3)------------------0-| 
|---|--------------------------|-------------------------| 
    |-Rhy Fig 1 
 
      PM  PM  PM          PM 
  +E  E E E E E E E   +E  E E E E Q  E 
|-------------------|------------------| 
|-------------------|------------------| 
|-------------------|------------------| 
|-(2)---2---4---5---|-------4---5-4--9-| 
|-(0)---------0---2-|-(2)-----2---2--7-| 
|-----0---0---------|-----0------------| 
| 
| +Q    Q   Q   E E   +Q    Q   E Q  E 
|-------------------|------------------| 
|-------------------|------------------| 
|-------------------|------------------| 
|-------2---4---5-4-|-(4)---4---5-4S=9-| 
|-(0)-------------2-|-(2)---------2S=7-| 
|-------------------|------------------| 
                         end Rhy Fig 1-| 
 
w/Rhy Fig 1 
       PM  PM    PM     ~~~~~~~~~PM  PM  PM 
  +E   E E E  E  E  E   E    +E  E E E E E E E 

|--------------------------|-------------------| 
|--------------------------|-------------------| 
|--------------------------|-------------------| 
|-(9)\---2---{4}---{5}-----|-------2---4---5---| 
|-(7)\-----------0-----{3}-|-(3)---------0---0-| 
|------0---0---------------|-----0---0---------| 

 
 
      PM  PM    PM                PM 
  +E  E E E  E  E  E   E     +E   E E E E E E E 

|-------------------------|---------------------| 
|-------------------------|---------------------| 
|-------------------------|-------------------9-| 
|-------2---{4}---{5}-----|---------4---5---4-9-| 
|-(0)-----------0-----{2}-|-({2})-----2-------7-| 
|-----0---0---------------|-------0-------0-----| 

 
 
                                                          1. 
    Gtrs I, II 
         PM|   PM--|     PM--|               PM|   PM--| 
    +Q   E E E E E E   E E E E Q  E E   +Q   E E E E E E   Q  a E E +Q   E E 

||-------------------|----------------|------------------|--------------------|| 
||o------------------|----------------|------------------|-------------------o|| 
||--(9)------9-------|-9-------7--7-9-|-(9)------9-------|-9---------------9--|| 
||--(9)------9-------|-9-------7--7-9-|-(9)------9-------|-9--7s8s7-(7)--5-9--|| 
||o-(7)------7-------|-7-------5--5-7-|-(7)------7-------|-7--7s8s7-(7)--5-7-o|| 
||-------0-0---0-0-0-|---0-0-0--------|------0-0---0-0-0-|--------------------|| 

 
 
                       Verses 
  2. 
                             PM|   PM--|     PM--| 
  Q  a E E +Q   E E     +Q   E E E E E E   E E E E q  E E 

|-------------------||-------------------|----------------| 
|-------------------||o------------------|----------------| 
|-9---------------2-||--(2)------2-------|-2-------0--0-2-| 
|-9--7s8s7-(7)--0-2-||--(2)------2-------|-2-------0--0-2-| 
|-7--7s8s7-(7)----0-||o-(0)--0-0-0-0-0-0-|-0-0-0-0--------| 
|-------------------||-------------------|----------------| 

 
 
       PM|   PM--|     PM--|               PM|   PM--| 
  +Q   E E E E E E   E E E E q  E E   +Q   E E E E E E 

|------------------|----------------|------------------| 
|------------------|----------------|------------------| 
|-(2)------2-------|-2-------0--0-2-|-(2)------2-------| 
|-(2)------2-------|-2-------0--0-2-|-(2)------2-------| 
|------0-0---0-0-0-|---0-0-0--------|------0-0---0-0-0-| 
|------------------|----------------|------------------| 

 
 
    PM--|               PM|   PM--|     PM--| 
  E E E E q  E E   +Q   E E E E E E   E E E E q  E E 

|----------------|------------------|----------------| 
|----------------|------------------|----------------| 
|-2-------0--0-2-|-(2)------2-------|-2-------0--0-9-| 
|-2-------0--0-2-|-(2)------2-------|-2-------0--0-9-| 
|---0-0-0--------|------0-0---0-0-0-|---0-0-0------7-| 
|----------------|------------------|----------------| 

 
 
       PM|   PM--|     PM--|   PM           PM|   PM--| 
  +Q   E E E E E E   E E E E E E E E   +Q   E E E E E E 

|------------------|-----------------|------------------| 
|------------------|-----------------|------------------| 
|-(9)------9-------|-9-------7---7-9-|-(9)------9-------| 
|-(9)------9-------|-9-------7---7-9-|-(9)------9-------| 
|-(7)------7-------|-7-------5---5-7-|-(7)------7-------| 
|------0-0---0-0-0-|---0-0-0---0-----|------0-0---0-0-0-| 

 
 
                           PM|   PM--|     PM--|   PM 
  Q  a E E +Q   E E   +Q   E E E E E E   E E E E E E E E 

|-------------------|------------------|-----------------| 
|-------------------|------------------|-----------------| 
|-9---------------9-|-(9)------9-------|-9-------7---7-9-| 
|-9--7s8s7-(7)--5-9-|-(9)------9-------|-9-------7---7-9-| 
|-7--7s8s7-(7)--5-7-|-(7)------7-------|-7-------5---5-7-| 
|-------------------|------0-0---0-0-0-|---0-0-0---0-----| 

 
 
                                       Pre-Chorus 
                                     $ 
       PM|   PM--|     PM  PM  PM 
  +Q   E E E E E E   E E E E E E E E    +W 

|------------------|-----------------||--------| 
|------------------|-----------------||--------| 
|-(9)------9-------|-9---------------||--------| 
|-(9)------9-------|-9---2---4---5---||--------| 
|-(7)------7-------|-7-------------3-||-(3)----| 
|------0-0---0-0-0-|---0---0---0-----||--------| 

 
 
      PM  PM                            PM  PM 
  +E  E E E  Q   E E   +W           +E  E E E Q  E E 

|--------------------|------------|------------------| 
|--------------------|------------|------------------| 
|--------------------|------------|----------------2-| 
|-------2---{4}--5---|------------|-------2---4--5-0-| 
|-(3)--------------0-|-(0)--------|-(0)--------------| 
|-----0---0----------|------------|-----0---0--------| 

 
 
                                                         To Coda 
                   PM  PM 
  +W           +E  E E E Q  E E   +H.      Q      H.       +Q 

|------------|------------------|-------------|------------------|| 
|------------|------------------|-------------|-/12-------(12)\--|| 
|-(2)--------|-(2)--------------|-------------|-/11-------(11)\--|| 
|-(0)--------|-(0)---4---5--7-4-|-(4)---------|------------------|| 
|------------|----------------2-|-(2)p=====0--|------------------|| 
|------------|-----0---0--------|-------------|------------------|| 

 
 
 Chorus 
  Q  Q  +E  Q.     Q.   E +Q   Q    Q  Q  +E  Q.     W 

|----------------|----------------|----------------|------| 
|----3--(3)-2----|-0--------------|----3--(3)-2----|-0----| 
|----2--(2)-2----|-0----9-(9)--7--|----2--(2)-2----|-0----| 
|----2--(2)-2----|-0----9-(9)--7--|----2--(2)-2----|-0----| 
|----------------|------7-(7)--5--|----------------|------| 
|-0--------------|----------------|-0--------------|------| 

 
 
                                                    1. 
  Q  Q  +E  Q.     Q.   E +Q   Q    Q  Q  +E  Q.     H.      +E  E 

|----------------|----------------|----------------|----------------|| 
|----3--(3)-2----|-0--------------|----3--(3)-2----|-0-------(0)---o|| 
|----2--(2)-2----|-0----9-(9)--7--|----2--(2)-2----|-0-------(0)-2--|| 
|----2--(2)-2----|-0----9-(9)--7--|----2--(2)-2----|-0-------(0)-2--|| 
|----------------|------7-(7)--5--|----------------|---------------o|| 
|-0--------------|----------------|-0--------------|----------------|| 

 
 
  2. 
  Gtr III 
  |-3--| 
  E  E E  E E  S S  S S  S S  S  S    S   S  S  S  S  S  S  S  S  S  S  S  e  E 
|-7h10p7----7-11p8----8-12p9----10-|-13p=10----11-14p11----11-15p12----13-16----|| 
|--------10--------10--------11----|--------12----------13----------14-------18-|| 
|----------------------------------|--------------------------------------------|| 
|----------------------------------|--------------------------------------------|| 
|----------------------------------|--------------------------------------------|| 
|----------------------------------|--------------------------------------------|| 
| 
| Gtrs I, II 
| W                                  +H.                                   E  E 
|----------------------------------|--------------------------------------------|| 
|----------------------------------|--------------------------------------------|| 
|-4--------------------------------|-(4)-----------------------------------4--9-|| 
|-4--------------------------------|-(4)-----------------------------------4--9-|| 
|-2--------------------------------|-(2)-----------------------------------2--7-|| 
|----------------------------------|--------------------------------------------|| 
 
 
 Guitar Solo 
              ~~~~ 
   +Q        +Q     +Q        E  E 
|----------------------------------------| 
|-(18)b21===(18)---(18)r\---/18-18b20====| 
|----------------------------------------| 
|----------------------------------------| 
|----------------------------------------| 
|----------------------------------------| 
| 
|             PM---|          PM 
|  +Q         E  E   E    E   E  E 
|----------------------------------------| 
|----------------------------------------| 
|--(9)--------9--9---9----7------9-------| 
|--(9)--------9--9---9----7------9-------| 
|--(7)--------7--7---7----5------7-------| 
|-----------------------------0----------| 
 
 
         ~~~~~~ 

                                              |--3--|  |--3--|  |---3---| 

   +E    Q.         +E    Q   E        +Q     E  E  E  E  E  E  E  E    E 
|----------------------------15b17==|=(15)r--12-------15p12---------------| 
|-(18)r-18b21======(18)r\-----------|-----------15p12-------12------------| 
|-----------------------------------|--------------------------12-14---12-| 
|-----------------------------------|-------------------------------------| 
|-----------------------------------|-------------------------------------| 
|-----------------------------------|-------------------------------------| 
| 
|              PM--| 
|  +Q          E E   E    Q   E        +H              Q.            E 
|-----------------------------------|-------------------------------------| 
|-----------------------------------|-------------------------------------| 
|--(9)---------9-9---9----7---5-----|--(5)--------------------------------| 
|--(9)---------9-9---9----7---5-----|--(5)-------------5-------------2----| 
|--(7)---------7-7---7----5---3-----|--(3)-------------5-------------2----| 
|-----------------------------------|------------------3-------------0----| 
 
 

   |----3-----|  |--3--| 

   E     +E   E  E  E  E  E      +E   +E   E 
|-----------------------------------------17--| 
|---------------------------------------------| 
|-14b16r(14)p12-------------------------------| 
|---------------14-12-------------------------| 
|---------------------------------------------| 
|---------------------15-12b15==(12)r(12)-----| 
| 
| +H                     +E       E    E   E 
|---------------------------------------------| 
|---------------------------------------------| 
|---------------------------------9----9---9--| 
|-(2)--------------------(2)------9----9---9--| 
|-(2)--------------------(2)------7----7---7--| 
|-(0)--------------------(0)------------------| 
 
 
   +E   S  S  S  S  E  S  S  E  S  S  E 
|-(17)p15p14-15p14----14s12----12-------| 
|------------------17-------15----15-12-| 
|---------------------------------------| 
|---------------------------------------| 
|---------------------------------------| 
|---------------------------------------| 
| 
|             PM------|         PM 
|  +Q         E     E  E     E  E     E 
|---------------------------------------| 
|---------------------------------------| 
|--(9)--------9-----9--9-----7--------9-| 
|--(9)--------9-----9--9-----7--------9-| 
|--(7)--------7-----7--7-----5--------7-| 
|-------------------------------0-------| 
 
 

                |---3---|  |---3---|  |---3---|    |--3---|  |-3--|  |-3--| |--3---| 

   S   S  S  S  E  E    E  E  E    E  E  E    E    E   E  E  E  E E  E E  E E  E   E 
|-12h=15p12----12-------------------------------|-------------------------------------| 
|-----------15----15---12-15-12------12---------|-14p=11----11------------------------| 
|---------------------------------14----15---14-|--------12----12-9-12p9----9---------| 
|-----------------------------------------------|------------------------12---11---9--| 
|-----------------------------------------------|-------------------------------------| 
|-----------------------------------------------|-------------------------------------| 
| 
|               PM--------| 
| +Q            E    E     E    q          E      +H                 Q.          E 
|-----------------------------------------------|-------------------------------------| 
|-----------------------------------------------|-------------------------------------| 
|-(9)-----------9----9-----9----7----------5----|-(5)---------------------------------| 
|-(9)-----------9----9-----9----7----------5----|-(5)----------------5-----------2----| 
|-(7)-----------7----7-----7----5----------3----|-(3)----------------5-----------2----| 
|-----------------------------------------------|--------------------3-----------0----| 
 
 
                   ~~ 
   |--3--| |-3--| 
   E  E  E E  E E  Q   +E    E        +Q     S  S  S  S  S  S  S  S  S  S  S     S 
|----------------------------------|--------14-17-17-14-14-14-17-14-14-17-------14-| 
|---------------------------17b19==|=(17)r--------------------------------17b19----| 
|----------------------------------|-----------------------------------------------| 
|-12p=9----9-----------------------|-----------------------------------------------| 
|-------12---10-9------------------|-----------------------------------------------| 
|-----------------12--(12)\--------|-----------------------------------------------| 
| 
|                                            PM---|                  PM 
| +H.                  +E    E        +Q     E     E     E     E     E     E 
|----------------------------------|-----------------------------------------------| 
|----------------------------------|-----------------------------------------------| 
|----------------------------------|-----------------------------------------------| 
|-(2)------------------(2)---9-----|--(9)----9-----9-----9-----7-----------9-------| 
|-(2)------------------(2)---9-----|--(9)----9-----9-----9-----7-----------9-------| 
|-(0)------------------(0)---7-----|--(7)----7-----7-----7-----5-----5-----7-------| 
 
 
                               ~~~~~~ 
   S   S  S     S  S  S  S  S  Q        +E      E 
|-14--17-------14-14-17-17-14-17b19====(17)r\------| 
|--------17b19-------------------------------------| 
|--------------------------------------------------| 
|--------------------------------------------------| 
|--------------------------------------------------| 
|---------------------------------------------/14--| 
| 
|                  PM---| 
| +Q               E     E     E     Q          E 
|--------------------------------------------------| 
|--------------------------------------------------| 
|--------------------------------------------------| 
|-(9)--------------9-----9-----9-----7----------5--| 
|-(9)--------------9-----9-----9-----7----------5--| 
|-(7)--------------7-----7-----7-----5----------3--| 
 
 
           PM---------|                                                ~~~ 
   +E   E  E  S  S  S  S  S  S  S  S  S  S    S   S  S  S  S  S  S  S  Q.     +E 
|------------------------------------------|---------------------------------------|| 
|------------------------------------------|---------------------------------------|| 
|------------------------------------------|-----------------------14-16-----(16)\-|| 
|------------------------------------14----|-----14-15-16-14-16-16-----------------|| 
|------------------14-15----14-15-17----15-|-17------------------------------------|| 
|-(14)-15-17-16-17-------17----------------|---------------------------------------|| 
| 
|  +Q      Q        Q           E     E      +H.                           E   E 
|------------------------------------------|---------------------------------------|| 
|------------------------------------------|---------------------------------------|| 
|------------------------------------------|---------------------------------------|| 
|--(5)-----5S=======7-----------7-----9----|-(9)---------------------------9---9---|| 
|--(5)-----5S=======7-----------7-----9----|-(9)---------------------------9---9---|| 
|--(3)-----3S=======5-----------5-----7----|-(7)---------------------------7---7---|| 
 
 
   T            T           T           T 
   S   S  S  S  S  S  S  S  S  S  S  S  S  S  S  S 
|-19p=14h17p14-19p14h16p14-19p14h17p14-19p14h16p14--| 
|---------------------------------------------------| 
|---------------------------------------------------| 
|---------------------------------------------------| 
|---------------------------------------------------| 
|---------------------------------------------------| 
| 
|               PM---|                  PM 
| +Q            E     E     E     E     E     E 
|---------------------------------------------------| 
|---------------------------------------------------| 
|---------------------------------------------------| 
|-(9)-----------9-----9-----9-----7-----------9-----| 
|-(9)-----------9-----9-----9-----7-----x-----9-----| 
|-(7)-----------7-----7-----7-----5-----x-----7-----| 
 
 
   T            T        T           T 
   S   S  S  S  S  S  E  S  S  S  S  S  S  S  S 
|-22p=14h17p14-22p14-17s22p17h19p17-22p17h19p17-| 
|-----------------------------------------------| 
|-----------------------------------------------| 
|-----------------------------------------------| 
|-----------------------------------------------| 
|-----------------------------------------------| 
| 
|               PM---| 
| +Q            E     E  E     q           E 
|-----------------------------------------------| 
|-----------------------------------------------| 
|-----------------------------------------------| 
|-(9)-----------9-----9--9-----7-----------5----| 
|-(9)-----------9-----9--9-----7-----------5----| 
|-(7)-----------7-----7--7-----5-----------3----| 
 
 
                                                                         ~~~~~~~~~~ 
   S   S  S  S  +S  S  S  S  S  S  S  S  S  S  S  S    Q      E  E      +E   +Q        E 
|-19h=22p19-----------------19----------------------|--------19--------------------------| 
|-----------22-(22)22p21p19----22p21p19----21-22p21-|-22b24-----22b24==(22)-(22)r\-------| 
|---------------------------------------22----------|------------------------------------| 
|---------------------------------------------------|------------------------------------| 
|---------------------------------------------------|------------------------------------| 
|---------------------------------------------------|------------------------------------| 
| 
| +Q             E     E     Q           E     E      +H.                          +E  E 
|---------------------------------------------------|------------------------------------| 
|---------------------------------------------------|------------------------------------| 
|---------------------------------------------------|----------------------------------5-| 
|-(5)------------5s====7-----7-----------------9----|-(9)--------------------------(9)-5-| 
|-(5)------------5s====7-----7-----------------9----|-(9)--------------------------(9)-3-| 
|-(3)------------3s====5-----5-----------0-----7----|-(7)--------------------------(7)---| 
 
 
                      ~~~                        ~~~~~~~~~~~ 
   |-3--|  |-3-| 
   Q  Q Q  Q Q Q      H.      E E    Q.      +E  H      +H     +E   E  Q 
|------------------|--------------|-------------------|---------------------| 
|-----7-8-10-8-7---|--8-------8p0-|-------------------|---------------------| 
|--9---------------|--------------|--9pb11r==(9)-9----|-(9)----(9)s16-------| 
|------------------|--------------|-------------------|---------------14\---| 
|------------------|--------------|-------------------|---------------------| 
|------------------|--------------|-------------------|---------------------| 
| 
| +W                 +H.      E E   +W                  +H.           +E  E 
|------------------|--------------|-------------------|---------------------| 
|------------------|--------------|-------------------|---------------------| 
|-(5)--------------|-(5)--------2-|-(2)---------------|-(2)-----------(2)-5-| 
|-(5)--------------|-(5)------0-2-|-(2)---------------|-(2)-----------(2)-5-| 
|-(3)--------------|-(3)------0-0-|-(0)---------------|-(0)-----------(0)-3-| 
|------------------|--------------|-------------------|---------------------| 
 
 
                      ~~~~~~~~~~ 
   |-3--|  |-3-| 
   Q  Q Q  Q Q Q      Q.   +E  Q.    E 
|------------------|-------------------| 
|-----7-8-10-8-7---|--8----(8)S5-----4-| 
|-/9---------------|-------------------| 
|------------------|-------------------| 
|------------------|-------------------| 
|------------------|-------------------| 
| 
| +W                 +H.           E E 
|------------------|-------------------| 
|------------------|-------------------| 
|-(5)--------------|-(5)-------------4-| 
|-(5)--------------|-(5)-------------4-| 
|-(3)--------------|-(3)-------------2-| 
|------------------|-------------------| 
 
 

      PM----------|           PM-----|   TP 
        |-3-| |-3-| |--3--|        |-3-| 

  +E  E E E E E E E E E   E   E  E E E E Q  S  S  S  S 
|---------------------------|-----------------------10---|| 
|-(4)-----------------------|------------4S=8-10-12------|| 
|-------------------2-3---4-|--------2-4-----------------|| 
|-------------2-3-5---------|-1--2-4---------------------|| 
|-----0-2-3-5---------------|----------------------------|| 
|---------------------------|----------------------------|| 
| 
| +H.               E   E     H.            E     E 
|---------------------------|----------------------------|| 
|---------------------------|----------------------------|| 
|-(4)-------------------7---|-7-------------7-----9------|| 
|-(4)-------------------7---|-7-------------7-----9------|| 
|-(2)---------------0---5---|-5-------------5-----7------|| 
|---------------------------|----------------------------|| 
 
 
   Q     Q   H          W                   W                   W 
|-12\----------------|-------------------|-------------------|-----------------| 
|--------------------|-------------------|-------------------|-----------------| 
|--------------------|-------------------|-------------------|-----------------| 
|--------------------|-------------------|-------------------|-----------------| 
|--------------------|-------------------|-------------------|-----------------| 
|--------------------|-------------------|-------------------|-----------------| 
| 
|      PM  PM  PM          PM  PM              PM  PM              PM 
| +E   E E E E E E E   +E  E E E E E E E   +E  E E E E E E E   +E  E Q  E Q  E 
|--------------------|-------------------|-------------------|-----------------| 
|--------------------|-------------------|-------------------|-----------------| 
|-(9)\---------------|-------------------|-------------------|-----------------| 
|-(9)\---2---4---5---|-------2---4---5-2-|-(2)---2---4---5-4-|-(4)---4--5-4S=9-| 
|-(7)\-------------3-|-(3)---------0---0-|-(0)---------x---2-|-(2)--------2S=7-| 
|------0---0---0-----|-----0---0---------|-----0---0---------|-----0-----------| 
 
 
  Gtrs I, II 
       PM  PM  PM  ~~~~~~~~PM  PM 
  +E   E E E E E E E   +E  E E E E E E E 

|--------------------|-------------------| 
|--------------------|-------------------| 
|--------------------|-------------------| 
|-(9)\---2---4---5---|-------2---4---5-2-| 
|-(7)\-------------3-|-(3)-------0-0---0-| 
|------0---0---0-----|-----0---0---------| 

 
 
      PM  PM              PM 
  +E  E E E E E E E   +E  E E E E Q  E 

|-------------------|------------------|| 
|-------------------|------------------|| 
|-------------------|------------------|| 
|-(2)---2---4-4-5-4-|-(4)---4---5-4--0-|| 
|-(0)-------------2-|-(2)-----2---2--0-|| 
|-----0---0---------|-----0------------|| 

 
 
   Bridge 
    Gtr I 
      PM|   PM|   PM--|   PM| 
    E E E E E E E E   E E E E E E E E  4x 
||------------------|------------------|| 
||o-----------------|-----------------o|| 
||--7-----5-----7---|---5-----7---5h7--|| 
||--7-----5-----7---|---5-----7p5-5h7--|| 
||o---0-0---0-0---0-|-0---0-0---------o|| 
||------------------|------------------|| 
| 
|   Gtr II 
|     PM|   PM|   PM--|   PM|   PM  PM 
|   E E E E E E E E   E E E E E E E E  4x 
||------------------|------------------|| 
||o-----------------|-----------------o|| 
||--7-----5-----7---|---5-----7---5----|| 
||--7-----5-----7---|---5-----7---5----|| 
||o---0-0---0-0---0-|-0---0-0---0---0-o|| 
||------------------|------------------|| 
 
 
    Gtrs I, II 
    PM  PM|          PM    ~~~~~~     PM  PM|          PM 
    E E E E E E Q    E E E E +H       E E E E E E Q    E E E E E Q. 

||-----------------|----------------|----------------|------------------|| 
||o----------------|----------------|----------------|-----------------o|| 
||----7-----5s4-2--|---5---7-(7)----|---7-----5s4-2--|---5---7---5------|| 
||----7-----5s4-2--|---5---7-(7)----|---7-----5s4-2--|---5---7---5------|| 
||o-0---0-0--------|-0--------------|-0---0-0--------|-0---------------o|| 
||-----------------|----------------|----------------|------------------|| 

 
 
  E E Q  +E  Q  E   Q  E E +E  E E E   E E Q  +E  Q.     Q.   E +Q   Q 

|-----------------|------------------|-----------------|----------------| 
|-----------------|------3-(3)-------|-----------------|----------------| 
|-----4--(4)-2----|-4----2-(2)---2h4-|-----4--(4)-2----|------2-(2)--4--| 
|-2h4-4--(4)-2----|-4------------2h4-|-2h4-4--(4)-2----|-4----2-(2)--4--| 
|-2---2--(2)----2-|----2-------2-----|-2---------------|-4--------------| 
|-----------------|------------------|-----------------|----------------| 

 
 
                                                           D.S. al Coda 
                                                           PM  PM  PM 
  E E Q  +E  Q  E   Q  E E +E  E E E   E E Q  +E  Q.     E E E E E E E E 

|-----------------|------------------|-----------------|-----------------|| 
|-----------------|------3-(3)-------|-----------------|-----------------|| 
|-----4--(4)-2----|-4----2-(2)---2h4-|-----4--(4)-2----|-----------------|| 
|-2h4-4--(4)-2----|-4------------2h4-|-2h4-4--(4)-2----|-4---2---4---5---|| 
|-2---2--(2)----2-|----2-------2-----|-2---------------|-4-------------3-|| 
|-----------------|------------------|-----------------|---2---2---2-----|| 

 
 
   Out-Chorus 
    & 
    Gtrs I, II 
    Q  Q  +E  Q.     Q.   E +Q   Q    Q  Q  +E  Q.     W     3x 

||-----------------|----------------|----------------|-------|| 
||o----3--(3)-2----|-0--------------|----3--(3)-2----|-0----o|| 
||-----2--(2)-2----|-0----9-(9)--7--|----2--(2)-2----|-0-----|| 
||-----2--(2)-2----|-0----9-(9)--7--|----2--(2)-2----|-0-----|| 
||o----------------|------7-(7)--5--|----------------|------o|| 
||--0--------------|----------------|-0--------------|-------|| 

 
 
  Q  Q  +E  Q.     Q.   E +Q   Q    Q  Q  +E  Q. 

|----------------|----------------|----------------| 
|----3--(3)-2----|-0--------------|----3--(3)-2----| 
|----2--(2)-2----|-0----9-(9)--7--|----2--(2)-2----| 
|----2--(2)-2----|-0----9-(9)--7--|----2--(2)-2----| 
|----------------|------7-(7)--5--|----------------| 
|-0--------------|----------------|----------------| 

 
 
  +Q   Q  +E  Q.     Q  Q  +E  Q.     H    +H 

|------------------|----------------|-------------*| 
|-(2)--0--(0)------|----------------|-------------*| 
|-(2)--0--(0)-9----|----7--(7)------|-------------*| 
|-(2)--0--(0)-9----|----7--(7)-5----|-2----(2)----*| 
|-------------7----|----5--(5)-5----|-2----(2)----*| 
|------------------|-----------3----|-0----(0)----*| 

 
  • 1
  • 2
  • 3
  • 4
  • 5
  • 6
  • 7
  • 8
  • 9
  • 10
  • 11
  • 12
    Acordes para:
      Composição: Glenn Tipton / Håkan Lundqvist / K.K. DowningColaboração e revisão:
      • alemão

      0 comentários

        mostrar mais comentários

        Conseguiu tocar?

        8tocaram0ainda não

        Grave um vídeo tocando Electric Eye e mande pra gente!

        00:00 / 00:00
        outros vídeos desta música
        repetirqualidadeautomática
        • automática
        Outro vídeos desta música
          00:00 / 00:00
          automática
          • automática
          Acordes para:violão e guitarra
          dificuldadeexibiçõescontribuições
          2 versões de Tab de baixoexibiçõescontribuições
          fecharplay/pause subir/descer velocidade
            Acordes para:violão e guitarra
            acordes
            fechar
            OK