Enviar cifraEntrar

Night Crawler

Judas Priest

Cifra: Principal
exibições 6.506
Tom: C
Intro: (Repeat 3 Times)


------------------------------------------------
------------------------------------------------
------9-------9-----------------9---------------
----9-------9-------9---------9-----------------
--7-----8-7-----5-7-----9---5-------------------
----------------------7-------------------------


2nd Part Intro (1x)


---------------------------------------------------------------
---------------------------------------------------------------
--9--------10--9---------7--9-----4-----7----------------------
--9--------10--9---------7--9-----4-----7----------------------
--7---------8--7---------5--7-----2-----5----------------------
----0-0-0-0------0-0-0-0------0-0---0-0---0-0-0-0-0-0----------


END INTRO WITH THIS RIFF 


-------------------------------------------------------------------
-------------------------------------------------------------------
--9--------10--9---------7--9-----4--------------------------------
--9--------10--9---------7--9-----4------------4---------4---------
--7---------8--7---------5--7-----2----2-2-2-2-2-2-2-2-2-2---------
----0-0-0-0------0-0-0-0------0-0----------------------------------

                                       * * * *   * * * *  
Verse 1:
HOWLING WINDS KEEP SCREAMING ROUND


------------------------------------------------------------------------------
------------------------------------------------------------------------------
------------------------------------------------------------------------------
---4--------------------------------------------------------------------------
---2-2-2-2-2-2-2-2-2-2-2-2-2-2-2-2-2-2-2-2-2-2-2-2-2-2-2-2-2-2-2-2-2----------
------------------------------------------------------------------------------

     * * * * * * * * * * * * * * * * * * * * * * * * * * * * * * * *

AND THE RAIN COMES POURING DOWN

--------------------------------------------------------------------------------
--------------------------------------------------------------------------------
----------------------------------------------------2---------4-4---------------
---2------------------------------------------------0---------2-2---------------
---0-0-0-0-0-0-0-0-0-0-0-0-0-0-0-0-0----5-4-2---2-2---2-2-2-2-------------------
--------------------------------------------------------------------------------

     * * * * * * * * * * * * * * * *            * *   * * * *

DOORS ARE LOCKED AND BOLTED NOW

------------------------------------------------------------------------------
------------------------------------------------------------------------------
------------------------------------------------------------------------------
---4--------------------------------------------------------------------------
---2-2-2-2-2-2-2-2-2-2-2-2-2-2-2-2-2-2-2-2-2-2-2-2-2-2-2-2-2-2-2-2-2----------
------------------------------------------------------------------------------

     * * * * * * * * * * * * * * * * * * * * * * * * * * * * * * * *

AS THE THING CRAWLS INTO TOWN

--------------------------------------------------------------------------------
--------------------------------------------------------------------------------
----------------------------------------------------2---------4-4---------------
---2------------------------------------------------0---------2-2---------------
---0-0-0-0-0-0-0-0-0-0-0-0-0-0-0-0-0----5-4-2---2-2---2-2-2-2-------------------
--------------------------------------------------------------------------------

     * * * * * * * * * * * * * * * *            * *   * * * *

PRE-CHORUS
STRAIGHT OUT OF HELL

---------------------------------------------------------
---------------------------------------------------------
---------------------------------------------------------
---------------------------------------------------------
---4-----4-----4-----------------------------------------
---2-0-0-2-0-0-2-0-0-0-2-3-------------------------------

     * *   * *   * * *

ONE OF A KIND

---------------------------------------------------------
---------------------------------------------------------
---------------------------------------------------------
------------------------5--------------------------------
----4-----4-------------3--------------------------------
----2-0-0-2-0-0-3-2-0-0----------------------------------

      * *   * *     * *

STALKING HIS VICTIM

---------------------------------------------------------
---------------------------------------------------------
---------------------------------------------------------
---------------------------------------------------------
---4-----4-----4-----------------------------------------
---2-0-0-2-0-0-2-0-0-0-2-3-------------------------------

     * *   * *   * * *

DON'T LOOK BEHIND 

---------------------------------------------------------
---------------------------------------------------------
---------------------------------------------------------
---------------------------------------------------------
---4-----4-------------3-2-0-0---------------------------
---2-0-0-2-0-0-3-2-0-0-----------------------------------

     * *   * *     * *

Chorus:

 Nightcrawler,

---------------------------------------------------------
---------------------------------------------------------
---------------------------------------------------------
-------4-----5-----4-----2-----0h2-----------------------
---2-2---2-2---2-2---2-2---2-2---------------------------
---------------------------------------------------------

 
Beware the beast in black

---------------------------------------------------------
---------------------------------------------------------
---------------------------------------------------------
-------2-------------------------------------------------
---0-0---0-0-4--0-0----------4---5---4-2-----------------
-------------------------2-2---2---2---------------------

   * *   * *    * *      * *   *   *
 
Nightcrawler,

---------------------------------------------------------
---------------------------------------------------------
---------------------------------------------------------
-------4-----5-----4-----2-----0h2-----------------------
---2-2---2-2---2-2---2-2---2-2---------------------------
---------------------------------------------------------

   * *   * *   * *   * *   * *

You know he's coming back

---------------------------------------------------------
---------------------------------------------------------
---------------------------------------------------------
-------2-------------------------------------------------
---0-0---0-0-4--0-0----------4---5---4-2-----------------
-------------------------2-2---2---2---------------------

   * *   * *    * *      * *   *   *

END OF CHORUS: Nightcrawer!

--------------------------------------------------------------------------
--------------------------------------------------------------------------
--------------------------------------------------------------------------
---9-10-9--7-9--4-7-----9-10-9--7-9---4---------4---------4---------------
---7--8-7--5-7--2-5-----7--8-7--5-7---2-2-2-2-2-2-2-2-2-2-2---------------
--------------------------------------------------------------------------


                                        * * * *   * * * *




SOLO:

------------------------------------------------------------------
------------------------------------------------------------------
-----------------------------------------6-6-6--7-7-7--9-9-9------
---------------------------7-7-7--9-9-9---------------------------
---7-7-7--9-9-9--10-10-10-----------------------------------------
------------------------------------------------------------------


---------------------------------------------------------
---5/7-8-7\5------7\5------------------------------------
--------------7/9---------7----5/6--7-9--6--7p6----------
----------------------7/9-----------------------9--------
---------------------------------------------------------
---------------------------------------------------------


------------------------------------------------------------
---5/7-8-7\5------7\5---------------------------------------
--------------7/9---------7----5/6--7-9--6--7p6-----7p6-----
----------------------7/9-----------------------9--------9--
------------------------------------------------------------
------------------------------------------------------------


Verse:
As night is falling...

-------------------------------------------------------------------------------
-------------------------------------------------------------------------------
-------------------------------------------------------------------------------
-------------------------------------------------------------------------------
-----4-2-4---4-2-4----5-4-2----5-5-5----5-4-2----5-4-2----7-5-7-4-4/9----------
---2-------2--------3--------0---2----3--------4--------5----------------------

                                           ...their last rites echo in the wind

Riff:                              (Repeat this 3x)

---------------------------------------------------------
---------------------------------------------------------
---------------------------------------------------------
---------------------------------------------------5-----
---4-----4-----4---------------4-----4-------------3-----
---2-0-0-2-0-0-2-0-0-0-2-3-----2-0-0-2-0-0-3-2-0-0-------

     * *   * *   * * *

And end so:

---------------------------------------------------------
---------------------------------------------------------
---------------------------------------------------------
--------------------------------4------------------------
---4-----4-------------3-2-0-0--2------------------------
---2-0-0-2-0-0-3-2-0-0-----------------------------------

     * *   * *     * *

BACK TO THE INTRO RIFF:

Huddled in the cellar

---------------------------------------------------------
---------------------------------------------------------
------9-------9-----------------9------------------------
----9-------9-------9---------9--------------------------
--7-----8-7-----5-7-----9---5----------------------------
----------------------7----------------------------------


So repeat this part until the end of Interlude,
After this,play the 2nd part intro one more time and
after go to the PRE-CHORUs and do the chorus 2 times
Repeat 2nd part intro 'till de end of the music.


Lyrics:

Howling wind keeps screaming round
And the rain comes pouring down
Doors are locked and bolted now
As the thing crawls into town

Pre Chorus:

Straight out of hell
One of a kind
Stalking his victim
Don't look behind you

Chorus:

Nightcrawler,
Beware the beast in black
Nightcrawler,
You know he's coming back
Nightcrawler

Sanctuary is being sought
Whispered prayers a last resort
Homing in its cry distorts
Terror struck they know they're caught

Pre Chorus:

Straight out of hell
One of a kind
Stalking his victim
Don't look behind you

Chorus:

Nightcrawler,
Beware the beast in black
Nightcrawler,
You he's coming back
Nightcrawler

As night is falling 
The end is drawing near
They'll hear
Their last rites echo in the wind

Interlude:

Huddled in the cellar
Fear caught in their eyes
Daring not to move or breathe
As the creature cries
Fingernails start scratching
On the outside wall
Clawing at the windows
"Come to me" it calls
Atmosphere's electric
As it now descend the stairs

Hiding in the darkness
Is so futile from its glare
Death comes in an instant
As they hoped it would
Souls ascend to heaven
While it feasts on flesh and blood
  • 1
  • 2
  • 3
  • 4
  • 5
  • 6
  • 7
  • 8
  • 9
  • 10
  • 11
  • 12
    Acordes para:
      Composição: Glenn Tipton / Håkan Lundqvist / K.K. DowningColaboração e revisão:
      • Henrique
      • dougllao

      0 comentários

        mostrar mais comentários

        Conseguiu tocar?

        1tocaram1ainda não

        Grave um vídeo tocando Night Crawler e mande pra gente!

        00:00 / 00:00
        outros vídeos desta música
        repetirqualidadeautomática
        • automática
        Outro vídeos desta música
          00:00 / 00:00
          automática
          • automática
          Acordes para:violão e guitarra
          dificuldadeexibiçõescontribuições
          1 versão de Guitar Proformatodownloadscontribuição
          fecharplay/pause subir/descer velocidade
            Acordes para:violão e guitarra
            acordes
            fechar
            OK