Cifra Club

Terra Seca

Judson Oliveira

Cifra: Principal (violão e guitarra)
Selo Cifra Club: esta cifra foi revisada para atender aos critérios oficiais da nossa Equipe de Qualidade.
tom: G
[Tab - Solo Intro]

Parte 1 de 4
E|---------------------------------------|
B|-7-8--7-8--7-8-7----7-8--7-8--7-8-7-10-|
G|-----------------7---------------------|
D|---------------------------------------|
A|---------------------------------------|
E|---------------------------------------|

Parte 2 de 4
E|-------10-------7---------10-------7-7-|
B|-7-8-7----7-8-7----7-8--7----7-8-7-----|
G|---------------------------------------|
D|---------------------------------------|
A|---------------------------------------|
E|---------------------------------------|

Parte 3 de 4
E|---------------------------------------|
B|-7-8--7-8--7-8-7----7-8--7-8--7-8-7-10-|
G|-----------------7---------------------|
D|---------------------------------------|
A|---------------------------------------|
E|---------------------------------------|

Parte 4 de 4
E|-------10-------7---------10-------7-8-7-7-|
B|-7-8-7----7-8-7----7-8--7----7-8-7---------|
G|-------------------------------------------|
D|-------------------------------------------|
A|-------------------------------------------|
E|-------------------------------------------|

G                  D
Senhor a minha oração
                C
Se tornou sequidão
                   G
Se tornou um deserto
                    D
E até a minha adoração
                    C
Já não passa de canções
                G
E palavras repetidas

                  D
Abre os céus, Senhor
C                   G
E deixa a chuva descer
                     D
A terra seca está aqui
C                 G
A terra seca sou eu

                 D
Deixa a água descer
                 C
Deixa a chuva molhar, encharcar, encharcar
              G
Esta terra seca
00:00 / 00:00
Outros vídeos desta música
Repetir
Outros vídeos desta música
909.385 exibições
    • ½ Tom
    • A
    • Bb
    • B
    • C
    • Db
    • D
    • Eb
    • E
    • F
    • F#
    • G
    • Ab
  • Adicionar à lista

Afinação da cifra

Afinador online

    0 comentários

    Ver todos os comentários

    Entre para o Cifra Club PRO

    Tenha acesso a benefícios exclusivos no App e no Site

    • Chega de anúncios

    • Mais recursos no app do Afinador

    • Atendimento Prioritário

    • Aumente seu limite de lista

    • Ajude a produzir mais conteúdo

    00:00 / 00:00

    Cifra Club Pro

    Aproveite o Cifra Club com benefícios exclusivos e sem anúncios
    Cifra Club Pro
    Aproveite o Cifra Club com benefícios exclusivos e sem anúncios
    OK