Cifra Club

Aprenda

Cold Water

Justin Bieber

Cifra: Principal (violão e guitarra)
tom: A (forma dos acordes no tom de G) Capotraste na 2ª casa
     Em     G       Bm     C
E|-----3-x-------x------x-----0---x----|
B|----0--x-----3-x----3-x-------1-x----|
G|---0---x----0--x---4--x----0----x----|
D|--2----x---0---x--4---x---2-----x----|
A|-------x-------x-2----x-3-------x----|
E|-------x-3-----x------x---------x----|

Em           G
  Everybody gets high sometimes
      Bm   C
You know
Em           G
  What else can we do 
                    Bm  C
When we're feeling low?
Em           G
  So take a deep breath and 
        Bm  C
Let it go
Em                   G
  You shouldn't be drowning 
        Bm  C
On your own

            Em          G
And if you feel you're sinking
        Bm        C
I will jump right over
      Em         G         Bm  C
Into cold, cold water for you
              Em       G
And although time may take us into 
 Bm         C
Different places
         Em      G            Bm  C
I will still be patient with you
                 D
And I hope you know

             Em G Bm C
I won't let go

E|---0------------------------------------------------------|
B|------3--0--------------0-----0--------------0------------|
G|------------------0--2-----2-----2--0-----2-----2--0------|
D|------------2--2-----------------------2--------------2---|
A|----------------------------------------------------------|
E|----------------------------------------------------------|

              Em  G      Bm  C
I'll be your lifeline tonight

             Em G Bm C
I won't let go

E|---0------------------------------------------------------|
B|------3--0--------------0-----0--------------0------------|
G|------------------0--2-----2-----2--0-----2-----2--0------|
D|------------2--2-----------------------2--------------2---|
A|----------------------------------------------------------|
E|----------------------------------------------------------|

              Em  G      Bm  C
I'll be your lifeline tonight

Em                  G
  Cause we all get lost sometimes 
      Bm    C
You know?
Em             G
  It's how we learn  
         Bm  C
How we grow
Em             G
  And I wanna lay with you 
         Bm  C
'Til I'm old
Em                  G
  You shouldn't be fighting 
        Bm  C
On your own

            Em          G
And if you feel you're sinking
        Bm        C
I will jump right over
      Em         G         Bm  C
Into cold, cold water for you
              Em       G
And although time may take us into 
 Bm         C
Different places
         Em      G            Bm  C
I will still be patient with you
                 D
And I hope you know

             Em G Bm C
I won't let go

E|---0------------------------------------------------------|
B|------3--0--------------0-----0--------------0------------|
G|------------------0--2-----2-----2--0-----2-----2--0------|
D|------------2--2-----------------------2--------------2---|
A|----------------------------------------------------------|
E|----------------------------------------------------------|

              Em  G      Bm  C
I'll be your lifeline tonight

             Em G Bm C
I won't let go

E|---0------------------------------------------------------|
B|------3--0--------------0-----0--------------0------------|
G|------------------0--2-----2-----2--0-----2-----2--0------|
D|------------2--2-----------------------2--------------2---|
A|----------------------------------------------------------|
E|----------------------------------------------------------|

              Em  G      Bm  C
I'll be your lifeline tonight

 Em
Come on, come on I'm
 G                       Bm  C
Save me from my rocking boat
                     Em    G
I just wanna stay afloat
          Bm   C
I'm all alone
    Em
And I hope, I hope 
 G                       Bm  C
Someone's gonna take me home 
                         Em  G
Somewhere I can rest my soul
(Rest my soul)
            Bm   C
I need to know

               Em G Bm C
You won't let go

E|---0------------------------------------------------------|
B|------3--0--------------0-----0--------------0------------|
G|------------------0--2-----2-----2--0-----2-----2--0------|
D|------------2--2-----------------------2--------------2---|
A|----------------------------------------------------------|
E|----------------------------------------------------------|

              Em   G      Bm  C
I'll be your life line tonight

               Em G Bm C
You won't let go

E|---0------------------------------------------------------|
B|------3--0--------------0-----0--------------0------------|
G|------------------0--2-----2-----2--0-----2-----2--0------|
D|------------2--2-----------------------2--------------2---|
A|----------------------------------------------------------|
E|----------------------------------------------------------|

              Em   G      Bm  C
I'll be your life line tonight

             Em G Bm C
I won't let go
             Em G Bm C
I won't let go
Composição de Diplo / Ed Sheeran / Jr. Blender / Justin Bieber / King Henry / MØ
240.635 exibições
    • ½ Tom
    • A
    • Bb
    • B
    • C
    • Db
    • D
    • Eb
    • E
    • F
    • F#
    • G
    • Ab
  • Adicionar à lista

    0 comentários

    Ver todos os comentários

    Conseguiu tocar?

    37 Tocaram 6 Ainda não

    Grave um vídeo tocando Cold Water e nos envie!

    00:00 / 00:00
    Outros vídeos desta música
    Repetir Qualidade Automático
    Outros vídeos desta música
    00:00 / 00:00
    Automático

    Cifra Club Pro

    Aproveite o Cifra Club com benefícios exclusivos e sem anúncios
    Cifra Club Pro
    Aproveite o Cifra Club com benefícios exclusivos e sem anúncios
    OK