Cifra Club

Love Yourself

Justin Bieber

Cifra: Principal
exibições 596.607
Tom: E
Primeira Parte:

Parte 1 de 2

      E        D#m     C#m
E|------------------------------------------|
B|-7h9-9-x--7--7-x--5--5-x------------------|
G|-------x-------x-------x------------------|
D|-------x-------x-------x------------------|
A|-7-----x--6----x--4----x--x---------------|
E|-0----------------------------------------|


Parte 2 de 2

      F#m       E       D#m
E|------------------------------------------|
B|-10--10-x--9--9-x--7--7-x-----------------|
G|--------x-------x-------x-----------------|
D|--------x-------x-------x-----------------|
A|-9------x--7----x--6----x-----------------|
E|------------------------------------------|


Parte 2 de 2 - Variação

      F#m       E       D#m
E|------------------------------------------|
B|-----10-x--9--9-x-----7-x-----------------|
G|--------x-------x-------x-----------------|
D|--------x-------x-------x-----------------|
A|-9------x--7----x--6----x-----------------|
E|------------------------------------------|


             E
For all the times
          D#m          C#m
That you rain on my parade
              F#m
And all the clubs you get in 
E           D#m
Using my name
                E
You think you broke my heart
    D#m               C#m
Oh girl for goodness sake
                F#m
You think I'm crying
      E           D#m
Oh my own, well I ain't
                     E          D#m
And I didn't wanna write a song 
                      C#m
Cause I didn't want anyone thinking

I still care
   F#m        E                 D#m
I don't but, you still hit my phone up
               E        D#m
And baby I be movin' on 
                  C#m
And I think you should be somethin'
               F#m
I don't wanna hold back
 E                 D#m
Maybe you should know that

Segunda Parte:

Parte 1 de 3

      C#5     A     E5
E|------------------------------------------|
B|------------------------------------------|
G|-6--6-x--2--x-----------------------------|
D|-6--6-x--2--x--2-2--x--2--x---------------|
A|-4----x--0--x--2-2--x--2--x---------------|
E|---------------0----x--0--x---------------|


Parte 2 de 3

      C#5     A       E5     B5
E|------------------------------------------|
B|------------------------------------------|
G|-6--6-x--2-2-x----------4-4-x-------------|
D|-6--6-x--2-2-x---2-2-x--4-4-x-------------|
A|-4----x--0---x---2-2-x--2---x-------------|
E|-----------------0---x--------------------|


Parte 3 de 3

      C#5     A        B5
E|------------------------------------------|
B|-------------2----------------------------|
G|-6--6-x--2-2-2-2--4-4-4-4-4---------------|
D|-6--6-x--2-2-2-2--4-4-4-4-4---------------|
A|-4----x--0---0----2-2-2-2-2---------------|
E|------------------------------------------|


               C#5
My mama don't like you
A                  E5
And she likes everyone
             C#5    A
And I never like to admit 
             E5
That I was wrong
                  C#5             A
And I've been so caught up in my job
        E5          B5
Didn't see what's going on
            C#5  A
And now I know
             B5
I'm better sleeping on my own

Refrão:

Parte 1 de 2

      E    B5     C#m   A
E|------------------------------------------|
B|-------------5-----2--2-------------------|
G|-1----4-x----6-x---2--2-------------------|
D|-2-x--4-x----6-x---2--2-------------------|
A|-2-x--2-x-x--4-x---0--x-------------------|
E|-0-x---------------------0----------------|


Parte 2 de 2

      E    B4(9)   E
E|------------------------------------------|
B|------2-2---------------------------------|
G|-1----4-4-----1-x-------------------------|
D|-2-x--2-2-----2-x---x---------------------|
A|-2-x--2-x-x---2-x---x---------------------|
E|-0-x----------0-x---x---------------------|


              E
Cause if you like 
        B5      C#m
The way    you look that much
A        E                   B4(9)      E
Oh baby you should go and love yourself
                          B5
And if you think that I'm 
       C#m        A
Still holdin' on to somethin'
 E                   B4(9)      E
You should go and love yourself

Repete a Primeira Parte:

              E
But when you told me that
     D#m       C#m
You hated my friends
           F#m             E
The only problem was with you 
             D#m
And not them
           E
And every time you told me 
 D#m             C#m
My opinion was wrong
              F#m
And tried to make me forget 
  E            D#m
Where I came from

                     E          D#m
And I didn't wanna write a song 
                      C#m
Cause I didn't want anyone thinking

I still care
   F#m        E                 D#m
I don't but, you still hit my phone up
               E        D#m
And baby I be movin' on 
                  C#m
And I think you should be somethin'
               F#m
I don't wanna hold back
 E                 D#m
Maybe you should know that

Repete a Segunda Parte:

               C#5
My mama don't like you
A                  E5
And she likes everyone
             C#5    A
And I never like to admit 
             E5
That I was wrong
                  C#5             A
And I've been so caught up in my job
        E5          B5
Didn't see what's going on
            C#5  A
And now I know
             B5
I'm better sleeping on my own

Refrão:

              E
Cause if you like 
        B5      C#m
The way    you look that much
A        E                   B4(9)      E
Oh baby you should go and love yourself
                          B5
And if you think that I'm 
       C#m        A
Still holdin' on to somethin'
 E                   B4(9)      E
You should go and love yourself

Solo:

Parte 1 de 2

E|-----------------------------------------------------|
B|-----------------------------------------------------|
G|-4---4-----------4---4-------------------------------|
D|---6---6--4--------6---6--4---6----------------------|
A|------------7-7-------------7------------------------|
E|-----------------------------------------------------|


Parte 2 de 2

E|-----------------------------------------------------|
B|-----------------------------------------------------|
G|-4---4-----------------------------------------------|
D|---6---6--4----7-6-4---------------------------------|
A|------------7--------7-7-----------------------------|
E|-----------------------------------------------------|


( E  B5  C#m  A )
( E  B4(9)  E )

Repete a Primeira Parte:

             E
For all the times that 
     D#m           C#m
You made me feel small
           F#m
I fell in love
            E         D#m
Now I fear nothin' at all
         E
I never felt so low 
     D#m            C#m
When I was vulnerable
         F#m
Was I a fool to let you
  E            D#m
Break down my walls

Repete o Refrão:

              E
Cause if you like 
        B5      C#m
The way    you look that much
A        E                   B4(9)      E
Oh baby you should go and love yourself
                          B5
And if you think that I'm 
       C#m        A
Still holdin' on to somethin'
 E                   B4(9)      E
You should go and love yourself
              E
Cause if you like 
        B5      C#m
The way    you look that much
A        E                   B4(9)      E
Oh baby you should go and love yourself
                          B5
And if you think that I'm 
       C#m        A
Still holdin' on to somethin'
 E                   B4(9)      E
You should go and love yourself
Acordes para:

    0 comentários

      mostrar mais comentários

      Conseguiu tocar?

      64tocaram3ainda não

      Grave um vídeo tocando Love Yourself e mande pra gente!

      00:00 / 00:00
      outros vídeos desta música
      repetirqualidadeautomática
      Outro vídeos desta música
        00:00 / 00:00
        automática
        Capítulos
        • Tocando a música
        • Dicas Iniciais / Equipamentos
        • Acordes da Primeira Parte
        • Tocando a Primeira Parte
        • Primeira Parte - Parte 1 de 2
        • Primeira Parte - Parte 2 de 2
        • Primeira Parte - Parte 2 de 2 (variação)
        • Acordes da Segunda Parte
        • Tocando a Segunda Parte
        • Segunda Parte - Parte 1 de 3
        • Segunda Parte - Parte 2 de 3
        • Segunda Parte - Parte 3 de 3
        • Acordes do Refrão
        • Tocando o Refrão
        • Refrão - Parte 1 de 2
        • Refrão - Parte 2 de 2
        • Solo - Parte 1 de 2
        • Solo - Parte 2 de 2
        • Encerramento
        • Ficha Técnica
        OK