Cifra Club

Aprenda

Sexyback

Justin Timberlake

Cifra: Principal (violão e guitarra)
tom: F
Tabbed by:Sound Mind
Email:*

Tuning:Standard

    A  Bb A
E|-5--6--5--6-555-6--5---|
B|-5--6--5--6-555-6--5---|
G|-6--7--6--7-666-7--6---|
D|-7--8--7--8-777-8--7---|
A|-7--8--7--8-777-8--7---|
E|-5--6--5--6-555-6--5---|

That's the chorus and the verse, pretty much the whole song except for the
little riff at the end of the chorus which goes something like this:

E|------------------|
B|------------------|
G|--7-9-7-9-10-9-7h9|
D|7-----------------|
A|------------------|
E|------------------|

And this here is JT's vocal line in the chorus:

E|-----------|
B|-----------|
G|-----------|
D|7-8-10-8-77|
A|-----------|
E|-----------|

| /  slide up
| \  slide down
| h  hammer-on
| p  pull-off
| ~  vibrato
| +  harmonic
| x  Mute note
===============================================================================
Composição de Justin Timberlake / Timbaland
Colaboração e revisão:
  • Levy Xavier
22.765 exibições
    • ½ Tom
    • A
    • Bb
    • B
    • C
    • Db
    • D
    • Eb
    • E
    • F
    • F#
    • G
    • Ab
  • Adicionar à lista

    0 comentários

    Ver todos os comentários

    Conseguiu tocar?

    0 Tocaram 0 Ainda não

    Grave um vídeo tocando Sexyback e nos envie!

    00:00 / 00:00
    outros vídeos desta música
    repetir qualidade Automático
    Outros vídeos desta música
    00:00 / 00:00
    Automático

    Cifra Club Pro

    Aproveite o Cifra Club com benefícios exclusivos e sem anúncios
    Cifra Club Pro
    Aproveite o Cifra Club com benefícios exclusivos e sem anúncios
    OK