Cifra Club

Lar Doce Lar

K o d a

Cifra: Principal (violão e guitarra)
tom: Eb (forma dos acordes no tom de C) Capotraste na 3ª casa
[Intro] C  Am  Em  G

[Tab - Intro]

Parte 1 de 2

     C                   Am
E|------------------------------------------|
B|---------1-------------------1------------|
G|---------0-------------------2------------|
D|------2-------------------2---------------|
A|---3-------------------0------------------|
E|------------------------------------------|

Parte 2 de 2

     Em                 G
E|------------------------------------------|
B|---------0------------------3-------------|
G|---------0------------------0-------------|
D|------2------------------0----------------|
A|---2--------------------------------------|
E|----------------------3-------------------|

C                          Am
Abra os olhos já pra se levantar
                               Em                                     
O Sol não te espera pra te clarear

Então vá se arrumar
        G       
A vida é curta pra sonhar

C     
Lar teu doce lar
 Am                                            
Hora de cozinhar
                             Em
Tuas gostosuras, açúcar, sei lá
                      G
Sua chaminé a fumaça levantar

 C         Am
Graciosa, moça
             Em
Teu bosque clama teu orar
             G
Teu bosque clama teu orar
 C         Am
Graciosa, moça
                Em
O cheiro, teus doces exalar
                G
O cheiro, teus doces exalar

C                   Am
Não se atreva a olhar
                    Em
Nem se quer a cheirar
                 G
Maldito quem provar teus doces
 C               Am                     Em
João, fuja do lugar, tu tens que se salvar
                G
Antes que seja tarde, a noite

 C                               Am
Forno a esquentar, criança a chorar
                                   Em
Ecos em teu bosque, ninguém a escutar

Prepare um chá
           G
A lágrima pura, a te temperar

( C  Am  Em  G )

[Tab - Dedilhado]

Parte 1 de 2

     C                   Am
E|------------------------------------------|
B|---------1-------------------1------------|
G|---------0-------------------2------------|
D|------2-------------------2---------------|
A|---3-------------------0------------------|
E|------------------------------------------|

Parte 2 de 2

     Em                 G
E|------------------------------------------|
B|---------0------------------3-------------|
G|---------0------------------0-------------|
D|------2------------------0----------------|
A|---2--------------------------------------|
E|----------------------3-------------------|

C
Ah maldito lar
                 Am
Pobre quem adentrar
                                  Em
Doces viram sonhos, dor toma o lugar

E o seu sofrimento
      G    
Ela se alimentar

 C         
Não há de escapar
              Am
Pobre quem adentrar

Teus bosques criam vida
               Em
Misturam teu olhar

Longe ou perto
         G
Ela vai te buscar

[Tab - Dedilhado]

Parte 1 de 2

   C                     Am  
E|------------------------------------------|
B|----1-----1---------------1-----1---------|
G|----0-----0---------------2-----2---------|
D|------------------------------------------|
A|-3-----3---------------0-----0------------|
E|------------------------------------------|

Parte 1 de 2

   Em                   G
E|------------------------------------------|
B|----0-----0--------------3-----3----------|
G|----0-----0--------------0-----0----------|
D|------------------------------------------|
A|-2-----2----------------------------------|
E|----------------------3-----3-------------|

 C         Am
Graciosa, bruxa
            Em
Teu bosque clama teu orar
            G
Teu bosque clama teu orar

 C        Am
Graciosa bruxa
                Em
O cheiro, teus doces exalar
                G           C
O cheiro, teus doces exalar
00:00 / 00:00
Outros vídeos desta música
Repetir
Outros vídeos desta música
Composição de K o d a
Colaboração e revisão:
  • Paulo Henrique
917 exibições
    • ½ Tom
    • A
    • Bb
    • B
    • C
    • Db
    • D
    • Eb
    • E
    • F
    • F#
    • G
    • Ab
  • Adicionar à lista

    0 comentários

    Ver todos os comentários

    Entre para oCifra Club PRO

    Tenha acesso a benefícios exclusivos no App e no Site

    • Chega de anúncios

    • Prioridade de compra em lançamentos

    • Mais recursos no app do Afinador

    • Atendimento Prioritário

    • Descontos nos produtos Cifra Club

    • Ajude a produzir mais conteúdo

    00:00 / 00:00

    Cifra Club Pro

    Aproveite o Cifra Club com benefícios exclusivos e sem anúncios
    Cifra Club Pro
    Aproveite o Cifra Club com benefícios exclusivos e sem anúncios
    OK