Cifra Club

Don't Say Lazy

K-ON!

Cifra: Principal
exibições 22.438
Tom: D

E |--------------------
B |--------------------
G |--5-7-4--9-7---5-7--
D |--5-7-4--9-7---5-7--
A |--3-5-2--7-5---3-5--
E |--------------------


E |--------------------------------------
B |--------------------------------------
G |--9-9--X-X-X-X--9-9--X-X-X-X--9-9-9-9-
D |--9-9--X-X-X-X--9-9--X-X-X-X--9-9-9-9-
A |--7-7--X-X-X-X--7-7--X-X-X-X--7-7-7-7-
E |--------------------------------------


E |--------------------
B |--------------------
G |--5-7-4--9-7--------
D |--5-7-4--9-7---7-9--
A |--3-5-2--7-5---7-9--
E |---------------5-7--


E |--------------------------------------
B |--------------------------------------
G |--9-9--X-X-X-X--9-9--X-X-X-X--9-9-9-9-
D |--9-9--X-X-X-X--9-9--X-X-X-X--9-9-9-9-
A |--7-7--X-X-X-X--7-7--X-X-X-X--7-7-7-7-
E |--------------------------------------


E |---------------------------------------
B |---------------------------------------
G |---9-9-X---9-9-9-X---9-9-9-X---9-9-10--
D |---9-9-X---9-9-9-X---9-9-9-X---9-9-10--  [X4]
A |---7-7-X---7-7-7-X---7-7-7-X---7-7-8---
E |---------------------------------------


E |--------------------------------------
B |--------------------------------------
G |--9-9--X-X-X-X--9-9--X-X-X-X--9-9-X-X-
D |--9-9--X-X-X-X--9-9--X-X-X-X--9-9-X-X-   [X2]
A |--7-7--X-X-X-X--7-7--X-X-X-X--7-7-X-X-
E |--------------------------------------


E |---------------------------------------
B |---------------------------------------
G |---9-9-X---9-9-9-X---9-9-9-X---9-9-10--
D |---9-9-X---9-9-9-X---9-9-9-X---9-9-10--  [X2]
A |---7-7-X---7-7-7-X---7-7-7-X---7-7-8---
E |---------------------------------------


E |------------------------12~-----------------------------
B |--5~------------------------15-17-12--------------------
G |-----7-9-----------------------------14-16--12-15-/16~--
D |----------9-7-9-5-4/2-----------------------------------
A |--------------------------------------------------------
E |--------------------------------------------------------


E |--------------------
B |--------------------
G |--5-7-4--9-7---5-7--
D |--5-7-4--9-7---5-7--
A |--3-5-2--7-5---3-5--
E |--------------------


E |--------------------------------------
B |--------------------------------------
G |--9-9--X-X-X-X--9-9--X-X-X-X--9-9-9-9-
D |--9-9--X-X-X-X--9-9--X-X-X-X--9-9-9-9-
A |--7-7--X-X-X-X--7-7--X-X-X-X--7-7-7-7-
E |--------------------------------------


E |--------------------
B |--------------------
G |--5-7-4--9-7--------
D |--5-7-4--9-7---7-9--
A |--3-5-2--7-5---7-9--
E |---------------5-7--


E |--------------------------------------
B |--------------------------------------
G |--9-9--X-X-X-X--9-9--X-X-X-X--9-9-9-9-
D |--9-9--X-X-X-X--9-9--X-X-X-X--9-9-9-9-
A |--7-7--X-X-X-X--7-7--X-X-X-X--7-7-7-7-
E |--------------------------------------


E |---------------------------------------
B |---------------------------------------
G |---9-9-X---9-9-9-X---9-9-9-X---9-9-10--
D |---9-9-X---9-9-9-X---9-9-9-X---9-9-10--  [X4]
A |---7-7-X---7-7-7-X---7-7-7-X---7-7-8---
E |---------------------------------------


E |--------------------------------------
B |--------------------------------------
G |--9-9--X-X-X-X--9-9--X-X-X-X--9-9-9-9-
D |--9-9--X-X-X-X--9-9--X-X-X-X--9-9-9-9-   [X2]
A |--7-7--X-X-X-X--7-7--X-X-X-X--7-7-7-7-
E |--------------------------------------


E |---------------------------------------
B |---------------------------------------
G |---9-9-X---9-9-9-X---9-9-9-X---9-9-10--
D |---9-9-X---9-9-9-X---9-9-9-X---9-9-10--  [X2]
A |---7-7-X---7-7-7-X---7-7-7-X---7-7-8---
E |---------------------------------------


E |--------------------------------------
B |--------------------------------------
G |--9-9--X-X-X-X--9-9--X-X-X-X--9-9-9-9-
D |--9-9--X-X-X-X--9-9--X-X-X-X--9-9-9-9-   [X2]
A |--7-7--X-X-X-X--7-7--X-X-X-X--7-7-7-7-
E |--------------------------------------


E |---------------------------------------
B |---------------------------------------
G |---9-9-X---9-9-9-X---9-9-9-X---9-9-10--
D |---9-9-X---9-9-9-X---9-9-9-X---9-9-10--  [X2]
A |---7-7-X---7-7-7-X---7-7-7-X---7-7-8---
E |---------------------------------------


E |------------------------12~-----------------------------
B |--5~------------------------15-17-12--------------------
G |-----7-9-----------------------------14-16--12-15-/16~--
D |----------9-7-9-5-4/2-----------------------------------
A |--------------------------------------------------------
E |--------------------------------------------------------


E |--------------------
B |--------------------
G |--5-7-4--9-7---5-7--
D |--5-7-4--9-7---5-7--
A |--3-5-2--7-5---3-5--
E |--------------------


E |--------------------------------------
B |--------------------------------------
G |--9-9--X-X-X-X--9-9--X-X-X-X--9-9-9-9-
D |--9-9--X-X-X-X--9-9--X-X-X-X--9-9-9-9-
A |--7-7--X-X-X-X--7-7--X-X-X-X--7-7-7-7-
E |--------------------------------------


E |--------------------
B |--------------------
G |--5-7-4--9-7--------
D |--5-7-4--9-7---7-9--
A |--3-5-2--7-5---7-9--
E |---------------5-7--


E |--------------------------------------
B |--------------------------------------
G |--9-9--X-X-X-X--9-9--X-X-X-X--9-9-9-9-
D |--9-9--X-X-X-X--9-9--X-X-X-X--9-9-9-9-
A |--7-7--X-X-X-X--7-7--X-X-X-X--7-7-7-7-
E |--------------------------------------


E |----------------------------
B |----------------------------
G |--9-9--10--7-7----9--10--7--
D |--9-9--10--7-7----9--10--7--   [X12]
A |--7-7--9---5-5----7--9---5--
E |----------------------------


E |------------------------12~-----------------------------
B |--5~------------------------15-17-12--------------------
G |-----7-9-----------------------------14-16-12-15-/16~---
D |----------9-7-9-5-4/2-----------------------------------
A |--------------------------------------------------------
E |--------------------------------------------------------


E |--------------------
B |--------------------
G |--5-7-4--9-7---5-7--
D |--5-7-4--9-7---5-7--
A |--3-5-2--7-5---3-5--
E |--------------------


E |--------------------------------------
B |--------------------------------------
G |--9-9--X-X-X-X--9-9--X-X-X-X--9-9-9-9-
D |--9-9--X-X-X-X--9-9--X-X-X-X--9-9-9-9-
A |--7-7--X-X-X-X--7-7--X-X-X-X--7-7-7-7-
E |--------------------------------------


E |--------------------
B |--------------------
G |--5-7-4--9-7--------
D |--5-7-4--9-7---7-9--
A |--3-5-2--7-5---7-9--
E |---------------5-7--


E |--------------------------------------
B |--------------------------------------
G |--9-9--X-X-X-X--9-9--X-X-X-X--9-9-9-9-
D |--9-9--X-X-X-X--9-9--X-X-X-X--9-9-9-9-
A |--7-7--X-X-X-X--7-7--X-X-X-X--7-7-7-7-
E |--------------------------------------


E |---------------------------------------
B |---------------------------------------
G |---9-9-X---9-9-9-X---9-9-9-X---9-9-10--
D |---9-9-X---9-9-9-X---9-9-9-X---9-9-10--  [X3]
A |---7-7-X---7-7-7-X---7-7-7-X---7-7-8---
E |---------------------------------------


E |---------------------------------------------
B |---------------------------------------------
G |---9-9-X---9-9-9-X---9-9-9-X---9-9-10---9-9--
D |---9-9-X---9-9-9-X---9-9-9-X---9-9-10---9-9--
A |---7-7-X---7-7-7-X---7-7-7-X---7-7-8----7-7--
E |---------------------------------------------
Acordes para:
    Colaboração e revisão:
    • Leticia

    0 comentários

      mostrar mais comentários

      Conseguiu tocar?

      13tocaram0ainda não

      Grave um vídeo tocando Don't Say Lazy e mande pra gente!

      00:00 / 00:00
      outros vídeos desta música
      repetirqualidadeautomática
      Outro vídeos desta música
        00:00 / 00:00
        automática
        OK