Cifra Club

Fuwa Fuwa Time

K-ON!

Cifra: Principal
exibições 19.288
Tom: E

            E5               A5       B5
E|----------------------------------------------------|
B|----------------------------------------------------|
G|---------9-9-9-9-9--9-9-----------------------------|
D|---------9-9-9-9-9--9-9---7-7-7----9-9-9-9----------| 3x
A|-7-7-7---7-7-7-7-7--7-7---7-7-7----9-9-9-9----------|
E|--------------------------5-5-5----7-7-7-7----------|


E|----------------------------------------------------|
B|----------------------------------------------------|
G|----------------------------------------------------|
D|-9----------9------------------9------X-9-X-9-------|
A|-7--7-7-7-7-7---7----------7---7--7-7-X-7-X-7-------|
E|----------------5--5-5-5-5-5------------------------|


E|----------------------------------------------------|
B|----------------------------------------------------|
G|----------------------------------------------------|
D|-(9)-9-X-9-9-9-9-9---6-----------6------------------|
A|-(7)-7-X-7-6-6-6-6---4---4-4-4-4-4---7-----------7--|
E|-------------------------------------5---5-5-5-5-5--|


E|----------------------------------------------------|
B|----------------------------------------------------|
G|----------------------------------------------------|
D|----------------------------------------------------|
A|-9-----------9-------9------------------------------|
E|-7---7-7-7-7-7---X-X-7------------------------------|


E|----------------------------------------------------|
B|----------------------------------------------------|
G|----------------------------------------------------|
D|----------------------------------------------------|
A|-7--------7---7--------6----------6---6---6---------|
E|-5------X-5-X-5--------4--------X-4---4-X-4---------|


E|-------2--------------------------------------------|
B|-------2---4--------------------10-(10)10---9-------|
G|-------2---4----------9-----9----9-(9)-9----9-------|
D|-4-----4---4----------9-----9----9-(7)-7----9-------|
A|-4---------2----------7---x-7-x--7-(7)-7--X-7-------|
E|-2--------------------------------------------------|


E|----------------------------------------------------|
B|----------------------------------------------------|
G|----------------------------------------------------|
D|-------------------------------------6--------------|
A|--7---------7------7---7------7------4------4------9|
E|--5-------X-5----X-5-X-5------4-------------2------6|


E|----------------------------------------------------|
B|----------------------------------------------------|
G|----------------------------------------------------|
D|----------------------------------6---9-------------|
A|------9------9-----9--------9-9---4---6-------------|
E|------7----X-7---X-7------X-7-7---------------------|


E|----------------------------------------------------|
B|----------------------------------------------------|
G|-9-----2-----4----5------6----2-------------4-------|
D|-9-----2-----4----6------6----2----4--------4--6--9-|
A|-7-----0-----2----3------4----0----4--------2--4--6-|
E|-----------------------------------2----X-X---------|


E|----------------------------------------------------|
B|----------------------------------------------------|
G|-9-----2-----4----5-------6----2----4---------------|
D|-9-----2-----4----6-------6----2----4---------------|
A|-7-----0-----2----3-------4----0----2---------------|
E|----------------------------------------------------|


E|----------------------------------------------------|
B|----------------------------------------------------|
G|---------9-9-9-9-9--9-9---2-2-2----4-4-4-4----------|
D|---------9-9-9-9-9--9-9---2-2-2----4-4-4-4----------|
A|-7-7-7---7-7-7-7-7--7-7---0-0-0----2-2-2-2----------|
E|----------------------------------------------------|


E|---------------------------------------------------------------|
B|---------------------------------------------------------------|
G|-------------------------------------2--2-0--------------------|
D|-9-9-9-9-9--9---2-2---4-4-------------------2-0----------------|
A|-7-7-7-7-7--7---0-0---2-2------2-----------------2--0-------2--|
E|-------------------------------0------------------------3---0--|
Acordes para:
    Colaboração e revisão:
    • Louis Hiraga
    • Ulysses Savio
    • Bianca Serafim

    0 comentários

      mostrar mais comentários

      Conseguiu tocar?

      12tocaram0ainda não

      Grave um vídeo tocando Fuwa Fuwa Time e mande pra gente!

      00:00 / 00:00
      outros vídeos desta música
      repetirqualidadeautomática
      Outro vídeos desta música
        00:00 / 00:00
        automática
        OK