Cifra Club

Aprenda

Café Das 6

k a m a i t a c h i

Cifra: Principal (violão e guitarra)
tom: C#m
[Intro e padrão de dedilhado da musica toda]
 
   C#m                      E                       
E|-----x-----x-----x-----x-----x-----x-----x-----x-|
B|-5-5-x-5-5-x-5-5-x-5-5-x-0-0-x-0-0-x-0-0-x-0-0-x-|
G|-6-6-x-6-6-x-6-6-x-6-6-x-1-1-x-1-1-x-1-1-x-1-1-x-|
D|-6-6-x-6-6-x-6-6-x-6-6-x-2-2-x-2-2-x-2-2-x-2-2-x-|
A|-4---x-4---x-4---x-4---x-----x-----x-----x-----x-|
E|-----x-----x-----x-----x-0---x-0---x-0---x-0---x-|

     A                       G#7                    
E|-----x-----x-----x-----x-----x-----x-----x-----x-|
B|-2-2-x-2-2-x-2-2-x-2-2-x-4-4-x-4-4-x-4-4-x-4-4-x-|
G|-2-2-x-2-2-x-2-2-x-2-2-x-5-5-x-5-5-x-5-5-x-5-5-x-|
D|-2-2-x-2-2-x-2-2-x-2-2-x-2-2-x-2-2-x-2-2-x-4-4-x-|
A|-0---x-0---x-0---x-0---x-----x-----x-----x-----x-|
E|-----x-----x-----x-----x-4---x-4---x-4---x-4---x-|


C#m                               E
Vai embora que eu to pagando pra ver
                     A
Sei que tu vai desistir
                            G#7
E vamos tomar aquele café das 6

C#m
Amargo como
                              E
Todo sorriso falso e aperto de mão
                                 A
Como todo te amo que não vem do coração

Como um limão

          G#7
Como um limão

C#m
Amargo como
                                E
Todas as contas não pagas e decepção
Como
                                   A
Todos os feitos errados que traz solidão

Como um limão

           G#7
Como um limão
 
   C#m
E|-----4--|
B|----5---|
G|---6----|
D|--6-----|
A|-4------|
E|--------|

C#m
Você quer
Você quer

C#m                                 E
Você, quer gritar, sumir do mundo pra chorar
                  A
Ter uma paz em valhalla
                  G#7
Ter uma paz em valhalla

C#m                                E
Você, quer gritar, sumir do mundo pra chorar
                  A
Ter uma paz em valhalla
                  G#7
Ter uma paz em valhalla
 
   C#m                           E                         
E|-----x-----x-----x-----------x-----x-----x-------x-------x-|
B|-5-5-x-5-5-x-5-5-x-5s7s5s4-0-x-0-0-x-0-0-x-----0-x-----0-x-|
G|-6-6-x-6-6-x-6-6-x-----------x-1-1-x-1-1-x---1---x---1---x-|
D|-6-6-x-6-6-x-6-6-x-----------x-2-2-x-2-2-x-2-----x-2-----x-|
A|-4---x-4---x-4---x-----------x-----x-----x-------x-------x-|
E|-----x-----x-----x-----------x-0---x-0---x-------x-------x-|


    A                           G#7
E x-----x-----x-------x-------x-----x-----x--------x-------x-
B x-2-2-x-2-2-x-----2-x-----2-x-4-4-x-4-4-x-----4--x-----4-x-
G x-2-2-x-2-2-x---2---x---2---x-5-5-x-5-5-x---5----x---5---x-
D x-2-2-x-2-2-x-2-----x-2-----x-4-4-x-4-4-x-4------x-4-----x-
A x-0---x-0---x-------x-------x-----x-----x--------x-------x-
E x-----x-----x-------x-------x-4---x-4---x--------x-------x-


C#m                              E
Vai embora que eu to pagando pra ver
                     A
Sei que tu vai desistir
                            G#7
E vamos tomar aquele café das 6

      C#m
Com açúcar
Como
                               E
Como boas amizades que pode encontrar
Como
                                 A
Como lugares tão lindos que te prendem lá
Como amar
       G#7
Como amar
     C#m
Com açúcar
Como

                                  E
Como ter um sonho lúcido e poder voar, voar
                                  A
Tão rápido que nem a luz pode nos alcançar
Como amar
       G#7
Como amar

Você quer
Você quer

C#m                                 E
Você, quer gritar, sumir do mundo pra chorar
                  A
Ter uma paz em valhalla
                  G#7
Ter uma paz em valhalla
C#m                                 E
Você, quer gritar, sumir do mundo pra chorar
                  A
Ter uma paz em valhalla
                  G#7
Ter uma paz em valhalla
C#m                               E
Vai embora que eu to pagando pra ver
                     A
Sei que tu vai desistir
                            G#7
E vamos tomar aquele café das 6

   C#m
E|-----4--|
B|----5---|
G|---6----|
D|--6-----|
A|-4------|
E|--------|
Composição de K a m a i t a c h i
128.827 exibições
    • ½ Tom
    • Am
    • Bbm
    • Bm
    • Cm
    • C#m
    • Dm
    • Ebm
    • Em
    • Fm
    • F#m
    • Gm
    • G#m
  • Adicionar à lista

    0 comentários

    Ver todos os comentários

    Conseguiu tocar?

    150 Tocaram 46 Ainda não

    Grave um vídeo tocando Café Das 6 e nos envie!

    00:00 / 00:00
    Outros vídeos desta música
    Repetir Qualidade Automático
    Outros vídeos desta música
    00:00 / 00:00
    Automático

    Cifra Club Pro

    Aproveite o Cifra Club com benefícios exclusivos e sem anúncios
    Cifra Club Pro
    Aproveite o Cifra Club com benefícios exclusivos e sem anúncios
    OK