Cifra Club

Don´t You Cry

Kamelot

Cifra: Principal (violão e guitarra)
tom: C
Intro:
E|-0-----2-----3-0-----------0---------3-------0-0-----2------3------5------7-----------|
B|---0-----2---------------1-3-1-0---0---1---1-----0-----2------0------5----------------|
G|-----0-----2-----0-----0---------0-------2---------0-----2------0---------------------|
D|---------------------2---------------------------------------------4------6-----------|
A|-------------------3-------------------0----------------------------------------------|
E|-3-----2-----0-----------------3---------------3-----2--------------------------------|

E|-0----------3-------------0-1-0---0-----------3-----|----|--------0-----------0-------|
B|---3-1-0--0---1-3-1-0---0-------3---3-1-0---0---0---|----|------1---1-------1---1-----|
G|--------0-------------0-------------------0-------0-|(2x)|----2-------2---2-------2---|
D|----------------------------0-----------------------|----|--------------2-------------|
A|-3------------0-------------------3-----------------|----|--0-----------------------0-|
E|-------3------------0-------------------3-----------|----|----------------------------|

Am
little by little
        G
I've come to this point
          Am                         G
on my own I've been searching my way
  Am
I lost you so early
       G
the days went so fast
      Am                           G
you don't know I prayed every day

   Am
a song to remember
    G
a song to forget
Am                             G
you'll never know how I tried
Am
to make you proud
       G
and to honor your name but
Am
you never told me goodbye

Pré-refrão:
Now that your...                                          ...will last
E|-0-----2-----3-0-----------0---------3-------0-0-----2------3------5------7-----------|
B|---0-----2---------------1-3-1-0---0---1---1-----0-----2------0------5----------------|
G|-----0-----2-----0-----0---------0-------2---------0-----2------0---------------------|
D|---------------------2---------------------------------------------4------6-----------|
A|-------------------3-------------------0----------------------------------------------|
E|-3-----2-----0-----------------3---------------3-----2--------------------------------|

Dm
now that your are gone
         Am              G
casting shadows from the past
Dm               Am            G
you and all the memories will last

Refrão:
                 C    Em
don't you cry
    Am            Em
or suffer over me
Dm         C             G
I will be waiting for you
                 C   Em
don't you cry
Am               Em     Dm
angels never fade away
      C                   G
I'll be watching over you
             Am
see you through
Am
now I'm a man and
      G
I'm feeling you still
           Am                        G
could it be you were there all along
   Am
a time to surrender
   G
a time to forgive
Am                               G
with solace I give you this song

Pré-refrão:
Now that you...                                         ...voice at last
E|-0-----2-----3-0-----------0---------3-------0-0-----2------3------5------7-----------|
B|---0-----2---------------1-3-1-0---0---1---1-----0-----2------0------5----------------|
G|-----0-----2-----0-----0---------0-------2---------0-----2------0---------------------|
D|---------------------2---------------------------------------------4------6-----------|
A|-------------------3-------------------0----------------------------------------------|
E|-3-----2-----0-----------------3---------------3-----2--------------------------------|

Dm
now that you are gone
         Am              G
casting shadows from the past
Dm             Am                  G
in my dreams I hear your voice at last

               C    Em
don't you cry
Am            Em
or suffer over me
Dm         C             G
I will be waiting for you
       C   Em
don't you cry
Am               Em      Dm
angels never fade away
           C               G
I'll be watching over you

        Em          Am
I can see you tonight
         Em             C
in the pale winter light
F               Am
father and son again
G                        F
the bond of blood will never end

(Solo)

Don't you cry...
00:00 / 00:00
Outros vídeos desta música
Repetir
Outros vídeos desta música
Compositor não encontrado.
Colaboração e revisão:
25.019 exibições
    • ½ Tom
    • A
    • Bb
    • B
    • C
    • Db
    • D
    • Eb
    • E
    • F
    • F#
    • G
    • Ab
  • Adicionar à lista

    0 comentários

    Ver todos os comentários

    Conseguiu tocar?

    12 Tocaram 0 Ainda não

    Grave um vídeo tocando Don´t You Cry e nos envie!

    Entre para oCifra Club PRO

    Tenha acesso a benefícios exclusivos no App e no Site

    • Chega de anúncios

    • Prioridade de compra em lançamentos

    • Mais recursos no app do Afinador

    • Atendimento Prioritário

    • Descontos nos produtos Cifra Club

    • Ajude a produzir mais conteúdo

    00:00 / 00:00

    Cifra Club Pro

    Aproveite o Cifra Club com benefícios exclusivos e sem anúncios
    Cifra Club Pro
    Aproveite o Cifra Club com benefícios exclusivos e sem anúncios
    OK