Cifra Club

Aprenda

Creator King

Kathryn Scott

Tab de baixo: Principal
Intro:
G|-------------------------|
D|-------------------------|
A|----3-------3------------| (2x)
E|-------1-------3--1------| 
                                
Verso 1:
G|-----------------------------------------------|
D|-----------------------------------------------|
A|----3---------3---------3---------3------------|
E|---------1---------1---------1-------3--1------|

G|-----------------------------------------------|
D|-----------------------------------------------|
A|----5----3---------5----5----3----------5------|
E|--------------3-------------------3------------|

G|-------------------|
D|-------------------|
A|----------3--------|
E|----1--3-----------|

G|---------------------------------------------|
D|---------------------------------------------|
A|----3---------3-----------3---------3--------|
E|---------1-------3--1----------1-------3--1--|

Verso 2:
G|-----------------------------------------------|
D|-----------------------------------------------|
A|----3---------3---------3---------3------------|
E|---------1---------1---------1-------3--1------|

G|------------------------------------------------------------------|
D|------------------------------------------------------------------|
A|----5--5----3--3------------5--5----5--5----3--3------------5--5--|
E|--------------------3--3----------------------------3--3----------|

G|---------------------------------------|
D|---------------------------------------|
A|----------------------3-3-3-3-3-3-3-3--|
E|----1-1-1-1--3-3-3-3-------------------|

Refrão: 
G|------------------------------------------------------------------|
D|------------------------------------------2-----------------------|
A|------------------3-3-3-3----------5--5---------------------------|
E|--5-5-5-5-1-1-1-1---------3-3-3-3------------1--1---1-1-1-1-------|

G|-----------------------------------------------------|
D|------------------------------------------2----------|
A|------------------3-3-3-3----------5--5--------------|
E|--5-5-5-5-1-1-1-1---------3-3-3-3------------1----1--|

G|-------------------------------|
D|-------------------------------|
A|----3--3---------3-------------|
E|----------1--1------3--1-------| 
                               
Verso 3:
G|-----------------------------------|
D|-----------------------------------|
A|----3--3--3-----3--3--3------------|
E|-------------------------3--1---1--|

G|-----------------------------------------------------------|
D|-----------------------------------------------------------|
A|----5--5---3--3----------5--5---5--5---3--3----------5--5--|
E|------------------3--3------------------------3--3---------|

G|----------------------------------------------------------------------|
D|----------------------------------------------------------------------|
A|----3--3---------3--3--------3--------------3--3--------3-------------|
E|----------1--1---------1--1-----3--1----1---------1--1-----3--1----1--|

G|---------------------|                                                                   
D|---------------------|
A|-----------------3---|
E|----5---3---1--------|
Composição de Mary Maclean
Colaboração e revisão:
  • Mansinho Jr.
18 exibições

0 comentários

Ver todos os comentários
00:00 / 00:00
Outros vídeos desta música
Repetir Qualidade Automático
Outros vídeos desta música
00:00 / 00:00
Automático

Cifra Club Pro

Aproveite o Cifra Club com benefícios exclusivos e sem anúncios
Cifra Club Pro
Aproveite o Cifra Club com benefícios exclusivos e sem anúncios
OK